999
DXF file: bg_BG-E1531-500BD-284-SS.dxf
999
Pro/ENGINEER 2020414 by Parametric Technology Corporation
  0
SECTION
  2
HEADER
  9
$ACADVER
  1
AC1032
  9
$DWGCODEPAGE
  3
ANSI_1252
  9
$EXTMAX
 10
22.0
 20
17.0
 30
0.0
  9
$EXTMIN
 10
0.0
 20
0.0
 30
0.0
  9
$LIMMIN
 10
0.0
 20
0.0
  9
$LIMMAX
 10
22.0
 20
17.0
  9
$VIEWCTR
 10
11.0
 20
8.5
  9
$VIEWSIZE
 40
17.0
  9
$CLAYER
  8
0
  9
$LTSCALE
 40
1.21
  9
$CELTYPE
  6
BYLAYER
  9
$DIMSCALE
 40
1.0
  9
$DIMASZ
 40
0.1875
  9
$DIMEXO
 40
0.0625
  9
$DIMDLI
 40
0.836
  9
$DIMEXE
 40
0.125
  9
$DIMCEN
 40
0.198
  9
$DIMLFAC
 40
9.0
  9
$DIMBLK
  1
_CLOSED
  9
$DIMALT
 70
0
  9
$DIMALTF
 40
25.4
  9
$DIMTXT
 40
0.15625
  9
$DIMTOL
 70
0
  9
$DIMLIM
 70
0
  9
$DIMTFAC
 40
1.0
  9
$DIMGAP
 40
0.09
  9
$DIMDSEP
 70
46
  9
$AUNITS
 70
0
  9
$PDMODE
 70
3
  9
$PDSIZE
 40
0.3125
  9
$HANDSEED
  5
3C2
  9
$TILEMODE
 70
1
  9
$MEASUREMENT
 70
0
  9
$INSUNITS
 70
1
  0
ENDSEC
  0
SECTION
  2
CLASSES
  0
CLASS
  1
ACDBDICTIONARYWDFLT
  2
AcDbDictionaryWithDefault
  3
AutoCAD 2000
 90
0
 91
1
280
0
281
0
  0
CLASS
  1
ACDBPLACEHOLDER
  2
AcDbPlaceHolder
  3
AutoCAD 2000
 90
0
 91
1
280
0
281
0
  0
CLASS
  1
LAYOUT
  2
AcDbLayout
  3
AutoCAD 2000
 90
0
 91
0
280
0
281
0
  0
ENDSEC
  0
SECTION
  2
TABLES
  0
TABLE
  2
VPORT
  5
8
100
AcDbSymbolTable
 70
2
  0
VPORT
  5
1F4
100
AcDbSymbolTableRecord
100
AcDbViewportTableRecord
  2
*ACTIVE
 70
0
 10
0.0
 20
0.0
 11
1.0
 21
1.0
 12
11.0
 22
8.5
 13
0.0
 23
0.0
 14
1.0
 24
1.0
 15
0.0
 25
0.0
 16
0.0
 26
0.0
 36
1.0
 17
0.0
 27
0.0
 37
0.0
 40
17.0
 41
1.2941176471
 42
50.0
 43
0.0
 44
0.0
 50
0.0
 51
0.0
 71
0
 72
100
 73
1
 74
1
 75
0
 76
0
 77
0
 78
0
  0
ENDTAB
  0
TABLE
  2
LTYPE
  5
5
100
AcDbSymbolTable
 70
6
  0
LTYPE
  5
14
100
AcDbSymbolTableRecord
100
AcDbLinetypeTableRecord
  2
BYBLOCK
 70
0
  3

 72
65
 73
0
 40
0.0
  0
LTYPE
  5
15
100
AcDbSymbolTableRecord
100
AcDbLinetypeTableRecord
  2
BYLAYER
 70
0
  3

 72
65
 73
0
 40
0.0
  0
LTYPE
  5
16
100
AcDbSymbolTableRecord
100
AcDbLinetypeTableRecord
  2
CONTINUOUS
 70
64
  3
Solid line
 72
65
 73
0
 40
0.0
  0
LTYPE
  5
1F5
100
AcDbSymbolTableRecord
100
AcDbLinetypeTableRecord
  2
CENTER
 70
64
  3
____ _ ____ _ ____ _ ____ _ ____ _ ____ _ ____
 72
65
 73
4
 40
0.6
 49
0.375
 74
0
 49
-0.075
 74
0
 49
0.075
 74
0
 49
-0.075
 74
0
  0
LTYPE
  5
1F6
100
AcDbSymbolTableRecord
100
AcDbLinetypeTableRecord
  2
HIDDEN
 70
64
  3
- - - - - - - - - - - - - - - - - - - -
 72
65
 73
2
 40
0.2
 49
0.1
 74
0
 49
-0.1
 74
0
  0
LTYPE
  5
1F7
100
AcDbSymbolTableRecord
100
AcDbLinetypeTableRecord
  2
PHANTOM
 70
64
  3
_____ _ _ _____ _ _ _____ _ _ _____
 72
65
 73
6
 40
0.8
 49
0.45
 74
0
 49
-0.05
 74
0
 49
0.1
 74
0
 49
-0.05
 74
0
 49
0.1
 74
0
 49
-0.05
 74
0
  0
LTYPE
  5
1F8
100
AcDbSymbolTableRecord
100
AcDbLinetypeTableRecord
  2
DOT
 70
64
  3
. . . . . . . . . . . . . . . . . . . .
 72
65
 73
2
 40
0.2
 49
0.1
 74
0
 49
-0.1
 74
0
  0
LTYPE
  5
1F9
100
AcDbSymbolTableRecord
100
AcDbLinetypeTableRecord
  2
DASHED
 70
64
  3
- - - - - - - - - - - - - - - - - - - -
 72
65
 73
2
 40
0.2
 49
0.1
 74
0
 49
-0.1
 74
0
  0
ENDTAB
  0
TABLE
  2
LAYER
  5
2
100
AcDbSymbolTable
 70
36
  0
LAYER
  5
10
100
AcDbSymbolTableRecord
100
AcDbLayerTableRecord
  2
0
 70
0
 62
7
  6
CONTINUOUS
370
-3
390
F
  0
LAYER
  5
1FA
100
AcDbSymbolTableRecord
100
AcDbLayerTableRecord
  2
DEFAULT_1
 70
0
 62
7
  6
CENTER
370
-3
390
F
  0
LAYER
  5
1FB
100
AcDbSymbolTableRecord
100
AcDbLayerTableRecord
  2
DEFAULT_2
 70
0
 62
7
  6
HIDDEN
370
-3
390
F
  0
LAYER
  5
1FC
100
AcDbSymbolTableRecord
100
AcDbLayerTableRecord
  2
DEFAULT_3
 70
0
 62
7
  6
PHANTOM
370
-3
390
F
  0
LAYER
  5
1FD
100
AcDbSymbolTableRecord
100
AcDbLayerTableRecord
  2
01_ALL_DTM_PLN
 70
0
 62
7
  6
CONTINUOUS
370
-3
390
F
  0
LAYER
  5
1FE
100
AcDbSymbolTableRecord
100
AcDbLayerTableRecord
  2
01__ASM_ALL_DTM_PLN
 70
0
 62
7
  6
CONTINUOUS
370
-3
390
F
  0
LAYER
  5
1FF
100
AcDbSymbolTableRecord
100
AcDbLayerTableRecord
  2
01__ASM_DEF_DTM_PLN
 70
0
 62
7
  6
CONTINUOUS
370
-3
390
F
  0
LAYER
  5
200
100
AcDbSymbolTableRecord
100
AcDbLayerTableRecord
  2
01___PRT_ALL_DTM_PLN
 70
0
 62
7
  6
CONTINUOUS
370
-3
390
F
  0
LAYER
  5
201
100
AcDbSymbolTableRecord
100
AcDbLayerTableRecord
  2
01___PRT_DEF_DTM_PLN
 70
0
 62
7
  6
CONTINUOUS
370
-3
390
F
  0
LAYER
  5
202
100
AcDbSymbolTableRecord
100
AcDbLayerTableRecord
  2
02_ALL_AXES
 70
0
 62
7
  6
CONTINUOUS
370
-3
390
F
  0
LAYER
  5
203
100
AcDbSymbolTableRecord
100
AcDbLayerTableRecord
  2
02__ASM_ALL_AXES
 70
0
 62
7
  6
CONTINUOUS
370
-3
390
F
  0
LAYER
  5
204
100
AcDbSymbolTableRecord
100
AcDbLayerTableRecord
  2
02___PRT_ALL_AXES
 70
0
 62
7
  6
CONTINUOUS
370
-3
390
F
  0
LAYER
  5
205
100
AcDbSymbolTableRecord
100
AcDbLayerTableRecord
  2
03_ALL_CURVES
 70
0
 62
7
  6
CONTINUOUS
370
-3
390
F
  0
LAYER
  5
206
100
AcDbSymbolTableRecord
100
AcDbLayerTableRecord
  2
03__ASM_ALL_CURVES
 70
0
 62
7
  6
CONTINUOUS
370
-3
390
F
  0
LAYER
  5
207
100
AcDbSymbolTableRecord
100
AcDbLayerTableRecord
  2
03___PRT_ALL_CURVES
 70
0
 62
7
  6
CONTINUOUS
370
-3
390
F
  0
LAYER
  5
208
100
AcDbSymbolTableRecord
100
AcDbLayerTableRecord
  2
04_ALL_DTM_PNT
 70
0
 62
7
  6
CONTINUOUS
370
-3
390
F
  0
LAYER
  5
209
100
AcDbSymbolTableRecord
100
AcDbLayerTableRecord
  2
04__ASM_ALL_DTM_PNT
 70
0
 62
7
  6
CONTINUOUS
370
-3
390
F
  0
LAYER
  5
20A
100
AcDbSymbolTableRecord
100
AcDbLayerTableRecord
  2
04___PRT_ALL_DTM_PNT
 70
0
 62
7
  6
CONTINUOUS
370
-3
390
F
  0
LAYER
  5
20B
100
AcDbSymbolTableRecord
100
AcDbLayerTableRecord
  2
05_ALL_DTM_CSYS
 70
0
 62
7
  6
CONTINUOUS
370
-3
390
F
  0
LAYER
  5
20C
100
AcDbSymbolTableRecord
100
AcDbLayerTableRecord
  2
05__ASM_ALL_DTM_CSYS
 70
0
 62
7
  6
CONTINUOUS
370
-3
390
F
  0
LAYER
  5
20D
100
AcDbSymbolTableRecord
100
AcDbLayerTableRecord
  2
05__ASM_DEF_DTM_CSYS
 70
0
 62
7
  6
CONTINUOUS
370
-3
390
F
  0
LAYER
  5
20E
100
AcDbSymbolTableRecord
100
AcDbLayerTableRecord
  2
05___PRT_ALL_DTM_CSYS
 70
0
 62
7
  6
CONTINUOUS
370
-3
390
F
  0
LAYER
  5
20F
100
AcDbSymbolTableRecord
100
AcDbLayerTableRecord
  2
05___PRT_DEF_DTM_CSYS
 70
0
 62
7
  6
CONTINUOUS
370
-3
390
F
  0
LAYER
  5
210
100
AcDbSymbolTableRecord
100
AcDbLayerTableRecord
  2
06_ALL_SURFS
 70
0
 62
7
  6
CONTINUOUS
370
-3
390
F
  0
LAYER
  5
211
100
AcDbSymbolTableRecord
100
AcDbLayerTableRecord
  2
06__ASM_ALL_SURFS
 70
0
 62
7
  6
CONTINUOUS
370
-3
390
F
  0
LAYER
  5
212
100
AcDbSymbolTableRecord
100
AcDbLayerTableRecord
  2
06___PRT_ALL_SURFS
 70
0
 62
7
  6
CONTINUOUS
370
-3
390
F
  0
LAYER
  5
213
100
AcDbSymbolTableRecord
100
AcDbLayerTableRecord
  2
07__ASM_ALL_SKELETONS
 70
0
 62
7
  6
CONTINUOUS
370
-3
390
F
  0
LAYER
  5
214
100
AcDbSymbolTableRecord
100
AcDbLayerTableRecord
  2
DTM
 70
0
 62
7
  6
CONTINUOUS
370
-3
390
F
  0
LAYER
  5
215
100
AcDbSymbolTableRecord
100
AcDbLayerTableRecord
  2
HIDE
 70
0
 62
7
  6
CONTINUOUS
370
-3
390
F
  0
ENDTAB
  0
TABLE
  2
STYLE
  5
3
100
AcDbSymbolTable
 70
1
  0
STYLE
  5
11
100
AcDbSymbolTableRecord
100
AcDbTextStyleTableRecord
  2
STANDARD
 70
0
 40
0.0
 41
0.8
 50
0.0
 71
0
 42
0.2
  3
SIMPLEX.SHX
  4

  0
STYLE
  5
216
100
AcDbSymbolTableRecord
100
AcDbTextStyleTableRecord
  2
TEXTSTYLE_1
 70
0
 40
0.0
 41
0.8
 50
0.0
 71
0
 42
0.2
  3
gdt
  4

  0
ENDTAB
  0
TABLE
  2
VIEW
  5
6
100
AcDbSymbolTable
 70
0
  0
ENDTAB
  0
TABLE
  2
UCS
  5
7
100
AcDbSymbolTable
 70
0
  0
ENDTAB
  0
TABLE
  2
APPID
  5
9
100
AcDbSymbolTable
 70
1
  0
APPID
  5
217
100
AcDbSymbolTableRecord
100
AcDbRegAppTableRecord
  2
ACAD
 70
0
  0
ENDTAB
  0
TABLE
  2
BLOCK_RECORD
  5
1
100
AcDbSymbolTable
 70
0
  0
BLOCK_RECORD
  5
218
100
AcDbSymbolTableRecord
100
AcDbBlockTableRecord
  2
*Model_Space
  0
BLOCK_RECORD
  5
219
100
AcDbSymbolTableRecord
100
AcDbBlockTableRecord
  2
*Paper_Space
  0
BLOCK_RECORD
  5
21A
100
AcDbSymbolTableRecord
100
AcDbBlockTableRecord
  2
_CLOSED
  0
ENDTAB
  0
TABLE
  2
DIMSTYLE
  5
A
100
AcDbSymbolTable
 70
1
100
AcDbDimStyleTable
 71
0
  0
DIMSTYLE
105
21B
100
AcDbSymbolTableRecord
100
AcDbDimStyleTableRecord
  2
STANDARD
 70
0
  3

  4

 40
1.0
 41
0.1875
 42
0.0625
 43
0.38
 44
0.125
 45
0.0
 46
0.0
 47
0.0001
 48
0.0001
140
0.15625
141
0.09
142
0.0
143
25.4
144
1.0
145
0.0
146
1.0
147
0.09
 71
0
 72
0
 73
1
 74
1
 75
0
 76
0
 77
0
 78
4
 79
1
170
0
171
3
172
0
173
0
174
0
175
0
176
0
177
0
178
0
270
2
179
4
271
4
272
4
273
2
274
2
275
0
280
0
281
0
282
0
283
1
284
4
285
0
286
0
287
3
288
0
340
11
278
46
341
21A
342
21A
343
21A
344
21A
  0
ENDTAB
  0
ENDSEC
  0
SECTION
  2
BLOCKS
  0
BLOCK
  5
20
100
AcDbEntity
  8
0
100
AcDbBlockBegin
  2
*Model_Space
 70
0
 10
0.0
 20
0.0
 30
0.0
  3
*Model_Space
  1

  0
ENDBLK
  5
21
100
AcDbEntity
  8
0
100
AcDbBlockEnd
  0
BLOCK
  5
1C
100
AcDbEntity
  8
0
100
AcDbBlockBegin
  2
*Paper_Space
 70
0
 10
0.0
 20
0.0
 30
0.0
  3
*Paper_Space
  1

  0
ENDBLK
  5
1D
100
AcDbEntity
  8
0
100
AcDbBlockEnd
  0
BLOCK
  5
21C
100
AcDbEntity
  8
0
100
AcDbBlockBegin
  2
_CLOSED
 70
64
 10
0.0
 20
0.0
  3
_CLOSED
  1

  0
LINE
  5
21D
100
AcDbEntity
  8
0
  6
BYBLOCK
 62
0
100
AcDbLine
 10
0.0
 20
0.0
 11
-1.0
 21
0.1666666667
  0
LINE
  5
21E
100
AcDbEntity
  8
0
  6
BYBLOCK
 62
0
100
AcDbLine
 10
-1.0
 20
0.1666666667
 11
-1.0
 21
-0.1666666667
  0
LINE
  5
21F
100
AcDbEntity
  8
0
  6
BYBLOCK
 62
0
100
AcDbLine
 10
-1.0
 20
-0.1666666667
 11
0.0
 21
0.0
  0
LINE
  5
220
100
AcDbEntity
  8
0
  6
BYBLOCK
 62
0
100
AcDbLine
 10
-1.0
 20
0.0
 11
0.0
 21
0.0
  0
ENDBLK
  5
221
100
AcDbEntity
  8
0
  6
BYBLOCK
 62
0
100
AcDbBlockEnd
  0
ENDSEC
  0
SECTION
  2
ENTITIES
  0
LINE
  5
222
100
AcDbEntity
  8
0
100
AcDbLine
 62
7
  6
BYLAYER
 10
0.0
 20
0.0
 11
0.0
 21
17.0
  0
LINE
  5
223
100
AcDbEntity
  8
0
100
AcDbLine
 62
7
  6
BYLAYER
 10
0.0
 20
0.0
 11
22.0
 21
0.0
  0
LINE
  5
224
100
AcDbEntity
  8
0
100
AcDbLine
 62
7
  6
BYLAYER
 10
0.0
 20
17.0
 11
22.0
 21
17.0
  0
LINE
  5
225
100
AcDbEntity
  8
0
100
AcDbLine
 62
7
  6
BYLAYER
 10
22.0
 20
0.0
 11
22.0
 21
17.0
  0
LINE
  5
226
100
AcDbEntity
  8
0
100
AcDbLine
 62
7
  6
BYLAYER
 10
3.5972222222
 20
3.4593509377
 11
3.5972222222
 21
4.9760176044
  0
LINE
  5
227
100
AcDbEntity
  8
0
100
AcDbLine
 62
7
  6
BYLAYER
 10
3.6694444444
 20
3.432503312
 11
3.6694444444
 21
5.0982398266
  0
LINE
  5
228
100
AcDbEntity
  8
0
100
AcDbLine
 62
7
  6
BYLAYER
 10
4.2361111111
 20
3.4593509377
 11
4.2361111111
 21
3.43157316
  0
LINE
  5
229
100
AcDbEntity
  8
0
100
AcDbLine
 62
7
  6
BYLAYER
 10
7.0534762909
 20
3.6990892197
 11
7.2361111111
 21
3.7480260723
  0
LINE
  5
22A
100
AcDbEntity
  8
0
100
AcDbLine
 62
7
  6
BYLAYER
 10
6.9677458619
 20
3.2579171425
 11
6.9060933978
 21
3.2606089472
  0
LINE
  5
22B
100
AcDbEntity
  8
0
100
AcDbLine
 62
7
  6
BYLAYER
 10
6.5543034757
 20
3.2759684269
 11
6.4895555556
 21
3.2787953822
  0
LINE
  5
22C
100
AcDbEntity
  8
0
100
AcDbLine
 62
7
  6
BYLAYER
 10
4.7777777778
 20
4.3938580712
 11
4.7777777778
 21
4.0248438043
  0
LINE
  5
22D
100
AcDbEntity
  8
0
100
AcDbLine
 62
7
  6
BYLAYER
 10
4.7916666667
 20
4.0704620489
 11
4.7916666667
 21
4.3482398266
  0
LINE
  5
22E
100
AcDbEntity
  8
0
100
AcDbLine
 62
7
  6
BYLAYER
 10
4.2361111111
 20
3.43157316
 11
5.625
 21
3.43157316
  0
LINE
  5
22F
100
AcDbEntity
  8
0
100
AcDbLine
 62
7
  6
BYLAYER
 10
3.6694444444
 20
3.432503312
 11
4.2361111111
 21
3.432503312
  0
LINE
  5
230
100
AcDbEntity
  8
0
100
AcDbLine
 62
7
  6
BYLAYER
 10
5.625
 20
3.432503312
 11
5.7972222222
 21
3.432503312
  0
LINE
  5
231
100
AcDbEntity
  8
0
100
AcDbLine
 62
7
  6
BYLAYER
 10
5.9861111111
 20
3.4593509377
 11
5.7972222222
 21
3.4593509377
  0
LINE
  5
232
100
AcDbEntity
  8
0
100
AcDbLine
 62
7
  6
BYLAYER
 10
3.5972222222
 20
3.4593509377
 11
3.6694444444
 21
3.4593509377
  0
LINE
  5
233
100
AcDbEntity
  8
0
100
AcDbLine
 62
7
  6
BYLAYER
 10
4.2361111111
 20
3.4593509377
 11
5.625
 21
3.4593509377
  0
LINE
  5
234
100
AcDbEntity
  8
0
100
AcDbLine
 62
7
  6
BYLAYER
 10
7.4027777778
 20
3.5357398266
 11
7.2361111111
 21
3.5357398266
  0
LINE
  5
235
100
AcDbEntity
  8
0
100
AcDbLine
 62
7
  6
BYLAYER
 10
6.4895555443
 20
3.3975453822
 11
5.9861111111
 21
3.5287953822
  0
LINE
  5
236
100
AcDbEntity
  8
0
100
AcDbLine
 62
7
  6
BYLAYER
 10
5.0694444444
 20
4.3482398266
 11
5.0694444444
 21
4.0704620489
  0
LINE
  5
237
100
AcDbEntity
  8
0
100
AcDbLine
 62
7
  6
BYLAYER
 10
6.0490416653
 20
3.80344816
 11
6.4266249902
 21
3.80344816
  0
LINE
  5
238
100
AcDbEntity
  8
0
100
AcDbLine
 62
7
  6
BYLAYER
 10
5.0833333333
 20
4.3938580712
 11
5.0833333333
 21
4.0248438043
  0
LINE
  5
239
100
AcDbEntity
  8
0
100
AcDbLine
 62
7
  6
BYLAYER
 10
4.7777777778
 20
4.0248438043
 11
5.0833333333
 21
4.0248438043
  0
LINE
  5
23A
100
AcDbEntity
  8
0
100
AcDbLine
 62
7
  6
BYLAYER
 10
4.7777777778
 20
4.0426842711
 11
5.0833333333
 21
4.0426842711
  0
LINE
  5
23B
100
AcDbEntity
  8
0
100
AcDbLine
 62
7
  6
BYLAYER
 10
6.4266249902
 20
4.1260176044
 11
6.0490416653
 21
4.1260176044
  0
LINE
  5
23C
100
AcDbEntity
  8
0
100
AcDbLine
 62
7
  6
BYLAYER
 10
5.625
 20
3.4593509377
 11
5.625
 21
3.43157316
  0
LINE
  5
23D
100
AcDbEntity
  8
0
100
AcDbLine
 62
7
  6
BYLAYER
 10
6.4266249902
 20
4.2926842711
 11
6.0490416653
 21
4.2926842711
  0
LINE
  5
23E
100
AcDbEntity
  8
0
100
AcDbLine
 62
7
  6
BYLAYER
 10
4.8194444444
 20
4.3760176044
 11
5.0416666667
 21
4.3760176044
  0
LINE
  5
23F
100
AcDbEntity
  8
0
100
AcDbLine
 62
7
  6
BYLAYER
 10
4.7777777778
 20
4.3938580712
 11
5.0833333333
 21
4.3938580712
  0
LINE
  5
240
100
AcDbEntity
  8
0
100
AcDbLine
 62
7
  6
BYLAYER
 10
5.7972222222
 20
5.0982398266
 11
5.7972222222
 21
3.432503312
  0
LINE
  5
241
100
AcDbEntity
  8
0
100
AcDbLine
 62
7
  6
BYLAYER
 10
5.8694444444
 20
3.4593509377
 11
5.8694444444
 21
5.03157316
  0
LINE
  5
242
100
AcDbEntity
  8
0
100
AcDbLine
 62
7
  6
BYLAYER
 10
5.9138888889
 20
3.4593509377
 11
5.9138888889
 21
4.9871287155
  0
LINE
  5
243
100
AcDbEntity
  8
0
100
AcDbLine
 62
7
  6
BYLAYER
 10
6.0490416653
 20
4.6152537155
 11
6.4266249902
 21
4.6152537155
  0
LINE
  5
244
100
AcDbEntity
  8
0
100
AcDbLine
 62
7
  6
BYLAYER
 10
5.9861111111
 20
4.9871287155
 11
5.9861111111
 21
3.4593509377
  0
LINE
  5
245
100
AcDbEntity
  8
0
100
AcDbLine
 62
7
  6
BYLAYER
 10
6.0490416653
 20
4.6152537155
 11
6.0490416653
 21
3.80344816
  0
LINE
  5
246
100
AcDbEntity
  8
0
100
AcDbLine
 62
7
  6
BYLAYER
 10
6.4895555443
 20
5.0211564933
 11
5.9861111111
 21
4.8899064933
  0
LINE
  5
247
100
AcDbEntity
  8
0
100
AcDbLine
 62
7
  6
BYLAYER
 10
6.1388888889
 20
5.3204620489
 11
6.1388888889
 21
5.1604620485
  0
LINE
  5
248
100
AcDbEntity
  8
0
100
AcDbLine
 62
7
  6
BYLAYER
 10
7.4027777778
 20
4.8829620489
 11
7.2361111111
 21
4.8829620489
  0
LINE
  5
249
100
AcDbEntity
  8
0
100
AcDbLine
 62
7
  6
BYLAYER
 10
5.9861111111
 20
4.9871287155
 11
5.9138888889
 21
4.9871287155
  0
LINE
  5
24A
100
AcDbEntity
  8
0
100
AcDbLine
 62
7
  6
BYLAYER
 10
6.9677458619
 20
5.160784733
 11
6.4895555556
 21
5.1399064933
  0
LINE
  5
24B
100
AcDbEntity
  8
0
100
AcDbLine
 62
7
  6
BYLAYER
 10
5.8694444444
 20
5.03157316
 11
5.7972222222
 21
5.03157316
  0
LINE
  5
24C
100
AcDbEntity
  8
0
100
AcDbLine
 62
7
  6
BYLAYER
 10
3.6694444444
 20
5.03157316
 11
3.6527777778
 21
5.03157316
  0
LINE
  5
24D
100
AcDbEntity
  8
0
100
AcDbLine
 62
7
  6
BYLAYER
 10
3.6694444444
 20
5.0982398266
 11
5.7972222222
 21
5.0982398266
  0
LINE
  5
24E
100
AcDbEntity
  8
0
100
AcDbLine
 62
7
  6
BYLAYER
 10
7.0534762909
 20
4.7196126557
 11
7.2361111111
 21
4.6706758032
  0
LINE
  5
24F
100
AcDbEntity
  8
0
100
AcDbLine
 62
7
  6
BYLAYER
 10
5.9138888889
 20
4.9871287155
 11
5.8694444444
 21
5.03157316
  0
LINE
  5
250
100
AcDbEntity
  8
0
100
AcDbLine
 62
7
  6
BYLAYER
 10
6.4266249902
 20
4.6152537155
 11
6.4266249902
 21
3.80344816
  0
LINE
  5
251
100
AcDbEntity
  8
0
100
AcDbLine
 62
7
  6
BYLAYER
 10
6.4895555556
 20
5.1399064933
 11
6.4895555556
 21
3.2787953822
  0
LINE
  5
252
100
AcDbEntity
  8
0
100
AcDbLine
 62
7
  6
BYLAYER
 10
7.3333333333
 20
5.1604620485
 11
6.9722574176
 21
5.1604620485
  0
LINE
  5
253
100
AcDbEntity
  8
0
100
AcDbLine
 62
7
  6
BYLAYER
 10
6.1388888889
 20
5.1604620485
 11
6.9603551728
 21
5.1604620485
  0
LINE
  5
254
100
AcDbEntity
  8
0
100
AcDbLine
 62
7
  6
BYLAYER
 10
6.1388888889
 20
5.3204620489
 11
7.3333333333
 21
5.3204620489
  0
LINE
  5
255
100
AcDbEntity
  8
0
100
AcDbLine
 62
7
  6
BYLAYER
 10
6.9895555556
 20
5.1399064933
 11
6.9895555556
 21
3.2787953822
  0
LINE
  5
256
100
AcDbEntity
  8
0
100
AcDbLine
 62
7
  6
BYLAYER
 10
7.2361111111
 20
4.8829620489
 11
7.2361111111
 21
3.5357398266
  0
LINE
  5
257
100
AcDbEntity
  8
0
100
AcDbLine
 62
7
  6
BYLAYER
 10
7.3333333333
 20
5.3204620489
 11
7.3333333333
 21
5.1604620485
  0
LINE
  5
258
100
AcDbEntity
  8
0
100
AcDbLine
 62
7
  6
BYLAYER
 10
7.4027777778
 20
4.8829620489
 11
7.4027777778
 21
3.5357398266
  0
LINE
  5
259
100
AcDbEntity
  8
0
100
AcDbLine
 62
7
  6
BYLAYER
 10
3.5972222222
 20
11.9694774457
 11
3.5972222222
 21
13.5028107765
  0
LINE
  5
25A
100
AcDbEntity
  8
0
100
AcDbLine
 62
7
  6
BYLAYER
 10
3.6694444444
 20
11.8472552226
 11
3.6694444444
 21
13.6250329996
  0
LINE
  5
25B
100
AcDbEntity
  8
0
100
AcDbLine
 62
7
  6
BYLAYER
 10
4.8194444444
 20
11.3333663333
 11
5.0416666667
 21
11.3333663333
  0
LINE
  5
25C
100
AcDbEntity
  8
0
100
AcDbLine
 62
7
  6
BYLAYER
 10
4.7777777778
 20
11.3611441111
 11
4.7916666667
 21
11.3611441111
  0
LINE
  5
25D
100
AcDbEntity
  8
0
100
AcDbLine
 62
7
  6
BYLAYER
 10
5.0694444444
 20
11.3611441111
 11
5.0833333333
 21
11.3611441111
  0
LINE
  5
25E
100
AcDbEntity
  8
0
100
AcDbLine
 62
7
  6
BYLAYER
 10
4.8194444444
 20
11.80998338
 11
5.0416666667
 21
11.80998338
  0
LINE
  5
25F
100
AcDbEntity
  8
0
100
AcDbLine
 62
7
  6
BYLAYER
 10
7.2361111111
 20
12.2748192457
 11
7.0534762909
 21
12.2258823931
  0
LINE
  5
260
100
AcDbEntity
  8
0
100
AcDbLine
 62
7
  6
BYLAYER
 10
4.7777777778
 20
11.8340058862
 11
5.0833333333
 21
11.8340058862
  0
LINE
  5
261
100
AcDbEntity
  8
0
100
AcDbLine
 62
7
  6
BYLAYER
 10
3.6694444444
 20
11.8472552222
 11
5.7972222222
 21
11.8472552222
  0
LINE
  5
262
100
AcDbEntity
  8
0
100
AcDbLine
 62
7
  6
BYLAYER
 10
4.8194444444
 20
11.8630200197
 11
5.0416666667
 21
11.8630200197
  0
LINE
  5
263
100
AcDbEntity
  8
0
100
AcDbLine
 62
7
  6
BYLAYER
 10
5.8694444444
 20
11.9139218889
 11
5.7972222222
 21
11.9139218889
  0
LINE
  5
264
100
AcDbEntity
  8
0
100
AcDbLine
 62
7
  6
BYLAYER
 10
3.6694444444
 20
11.9139218889
 11
3.6527777778
 21
11.9139218889
  0
LINE
  5
265
100
AcDbEntity
  8
0
100
AcDbLine
 62
7
  6
BYLAYER
 10
5.9861111111
 20
11.9583663333
 11
5.9138888889
 21
11.9583663333
  0
LINE
  5
266
100
AcDbEntity
  8
0
100
AcDbLine
 62
7
  6
BYLAYER
 10
6.4895555556
 20
11.8055885556
 11
6.5729454275
 21
11.8019476751
  0
LINE
  5
267
100
AcDbEntity
  8
0
100
AcDbLine
 62
7
  6
BYLAYER
 10
6.8855073143
 20
11.7883009284
 11
6.9677458619
 21
11.7847103159
  0
LINE
  5
268
100
AcDbEntity
  8
0
100
AcDbLine
 62
7
  6
BYLAYER
 10
4.7777777778
 20
11.8472552222
 11
4.7777777778
 21
11.3611441111
  0
LINE
  5
269
100
AcDbEntity
  8
0
100
AcDbLine
 62
7
  6
BYLAYER
 10
4.7916666667
 20
11.858172965
 11
4.7916666667
 21
11.8472552222
  0
LINE
  5
26A
100
AcDbEntity
  8
0
100
AcDbLine
 62
7
  6
BYLAYER
 10
4.7916666667
 20
11.7725801076
 11
4.7916666667
 21
11.3611441111
  0
LINE
  5
26B
100
AcDbEntity
  8
0
100
AcDbLine
 62
7
  6
BYLAYER
 10
7.2361111111
 20
12.062533
 11
7.4027777778
 21
12.062533
  0
LINE
  5
26C
100
AcDbEntity
  8
0
100
AcDbLine
 62
7
  6
BYLAYER
 10
5.9861111111
 20
12.0555885556
 11
6.0490416653
 21
12.0391823056
  0
LINE
  5
26D
100
AcDbEntity
  8
0
100
AcDbLine
 62
7
  6
BYLAYER
 10
6.4266249902
 20
11.9407448056
 11
6.4895555443
 21
11.9243385556
  0
LINE
  5
26E
100
AcDbEntity
  8
0
100
AcDbLine
 62
7
  6
BYLAYER
 10
5.0694444444
 20
11.3611441111
 11
5.0694444444
 21
11.7725801076
  0
LINE
  5
26F
100
AcDbEntity
  8
0
100
AcDbLine
 62
7
  6
BYLAYER
 10
5.0694444444
 20
11.8472552222
 11
5.0694444444
 21
11.858172965
  0
LINE
  5
270
100
AcDbEntity
  8
0
100
AcDbLine
 62
7
  6
BYLAYER
 10
5.0833333333
 20
11.8472552222
 11
5.0833333333
 21
11.3611441111
  0
LINE
  5
271
100
AcDbEntity
  8
0
100
AcDbLine
 62
7
  6
BYLAYER
 10
5.7972222222
 20
13.6250329996
 11
5.7972222222
 21
11.8472552226
  0
LINE
  5
272
100
AcDbEntity
  8
0
100
AcDbLine
 62
7
  6
BYLAYER
 10
5.8694444444
 20
11.9139218889
 11
5.8694444444
 21
13.5583663333
  0
LINE
  5
273
100
AcDbEntity
  8
0
100
AcDbLine
 62
7
  6
BYLAYER
 10
5.9138888889
 20
11.9583663333
 11
5.9138888889
 21
13.5139218889
  0
LINE
  5
274
100
AcDbEntity
  8
0
100
AcDbLine
 62
7
  6
BYLAYER
 10
5.9861111111
 20
13.5139218885
 11
5.9861111111
 21
11.9583663338
  0
LINE
  5
275
100
AcDbEntity
  8
0
100
AcDbLine
 62
7
  6
BYLAYER
 10
6.0490416653
 20
13.4331059167
 11
6.0490416653
 21
13.302711577
  0
LINE
  5
276
100
AcDbEntity
  8
0
100
AcDbLine
 62
7
  6
BYLAYER
 10
6.0490416653
 20
12.1695766452
 11
6.0490416653
 21
12.0391823056
  0
LINE
  5
277
100
AcDbEntity
  8
0
100
AcDbLine
 62
7
  6
BYLAYER
 10
5.9861111111
 20
13.4166996667
 11
6.0490416653
 21
13.4331059167
  0
LINE
  5
278
100
AcDbEntity
  8
0
100
AcDbLine
 62
7
  6
BYLAYER
 10
7.3111516158
 20
13.4097552222
 11
7.4027777778
 21
13.4097552222
  0
LINE
  5
279
100
AcDbEntity
  8
0
100
AcDbLine
 62
7
  6
BYLAYER
 10
5.9861111111
 20
13.5139218889
 11
5.9138888889
 21
13.5139218889
  0
LINE
  5
27A
100
AcDbEntity
  8
0
100
AcDbLine
 62
7
  6
BYLAYER
 10
5.8694444444
 20
13.5583663333
 11
5.7972222222
 21
13.5583663333
  0
LINE
  5
27B
100
AcDbEntity
  8
0
100
AcDbLine
 62
7
  6
BYLAYER
 10
3.6694444444
 20
13.5583663333
 11
3.6527777778
 21
13.5583663333
  0
LINE
  5
27C
100
AcDbEntity
  8
0
100
AcDbLine
 62
7
  6
BYLAYER
 10
6.4266249902
 20
12.0521097624
 11
6.4266249902
 21
11.9407448056
  0
LINE
  5
27D
100
AcDbEntity
  8
0
100
AcDbLine
 62
7
  6
BYLAYER
 10
5.9138888889
 20
11.9583663333
 11
5.8694444444
 21
11.9139218889
  0
LINE
  5
27E
100
AcDbEntity
  8
0
100
AcDbLine
 62
7
  6
BYLAYER
 10
3.6694444444
 20
13.625033
 11
5.7972222222
 21
13.625033
  0
LINE
  5
27F
100
AcDbEntity
  8
0
100
AcDbLine
 62
7
  6
BYLAYER
 10
7.2361111111
 20
13.1974689765
 11
7.2088946196
 21
13.2047616134
  0
LINE
  5
280
100
AcDbEntity
  8
0
100
AcDbLine
 62
7
  6
BYLAYER
 10
7.1184413992
 20
13.2289984808
 11
7.0534762909
 21
13.2464058291
  0
LINE
  5
281
100
AcDbEntity
  8
0
100
AcDbLine
 62
7
  6
BYLAYER
 10
5.9138888889
 20
13.5139218889
 11
5.8694444444
 21
13.5583663333
  0
LINE
  5
282
100
AcDbEntity
  8
0
100
AcDbLine
 62
7
  6
BYLAYER
 10
6.4895555556
 20
11.8055885556
 11
6.4895555556
 21
13.0258201313
  0
LINE
  5
283
100
AcDbEntity
  8
0
100
AcDbLine
 62
7
  6
BYLAYER
 10
6.9895555556
 20
13.0291861006
 11
6.9895555556
 21
11.8055885556
  0
LINE
  5
284
100
AcDbEntity
  8
0
100
AcDbLine
 62
7
  6
BYLAYER
 10
7.2361111111
 20
12.062533
 11
7.2361111111
 21
13.2428707918
  0
LINE
  5
285
100
AcDbEntity
  8
0
100
AcDbLine
 62
7
  6
BYLAYER
 10
7.4027777778
 20
12.062533
 11
7.4027777778
 21
13.4097552222
  0
LINE
  5
286
100
AcDbEntity
  8
0
100
AcDbLine
 62
7
  6
BYLAYER
 10
15.0833333333
 20
4.3497658266
 11
15.0833333333
 21
4.0719880489
  0
LINE
  5
287
100
AcDbEntity
  8
0
100
AcDbLine
 62
7
  6
BYLAYER
 10
15.1111111111
 20
4.0442102711
 11
15.1243604471
 21
4.0263698043
  0
LINE
  5
288
100
AcDbEntity
  8
0
100
AcDbLine
 62
7
  6
BYLAYER
 10
15.7083333333
 20
3.43309916
 11
15.8367723668
 21
3.43309916
  0
LINE
  5
289
100
AcDbEntity
  8
0
100
AcDbLine
 62
7
  6
BYLAYER
 10
17.1801944396
 20
3.43309916
 11
17.2638888889
 21
3.43309916
  0
LINE
  5
28A
100
AcDbEntity
  8
0
100
AcDbLine
 62
7
  6
BYLAYER
 10
15.7083333333
 20
3.4608769377
 11
15.7083333333
 21
3.43309916
  0
LINE
  5
28B
100
AcDbEntity
  8
0
100
AcDbLine
 62
7
  6
BYLAYER
 10
17.2638888889
 20
3.4608769377
 11
17.2113671264
 21
3.4608769377
  0
LINE
  5
28C
100
AcDbEntity
  8
0
100
AcDbLine
 62
7
  6
BYLAYER
 10
15.8063815029
 20
3.4608769377
 11
15.7083333333
 21
3.4608769377
  0
LINE
  5
28D
100
AcDbEntity
  8
0
100
AcDbLine
 62
7
  6
BYLAYER
 10
15.4879349923
 20
4.3240609194
 11
15.1111111111
 21
4.0442102711
  0
LINE
  5
28E
100
AcDbEntity
  8
0
100
AcDbLine
 62
7
  6
BYLAYER
 10
15.1243604471
 20
4.0263698043
 11
15.4849061452
 21
4.2941313566
  0
LINE
  5
28F
100
AcDbEntity
  8
0
100
AcDbLine
 62
7
  6
BYLAYER
 10
15.4947056663
 20
4.0442102711
 11
15.1483829534
 21
4.0442102711
  0
LINE
  5
290
100
AcDbEntity
  8
0
100
AcDbLine
 62
7
  6
BYLAYER
 10
15.1111111111
 20
4.3775436044
 11
15.496520706
 21
4.3775436044
  0
LINE
  5
291
100
AcDbEntity
  8
0
100
AcDbLine
 62
7
  6
BYLAYER
 10
16.7222222222
 20
5.1619880485
 11
16.7222222222
 21
5.3219880489
  0
LINE
  5
292
100
AcDbEntity
  8
0
100
AcDbLine
 62
7
  6
BYLAYER
 10
17.0972222222
 20
5.129120939
 11
17.0972222222
 21
4.9395744625
  0
LINE
  5
293
100
AcDbEntity
  8
0
100
AcDbLine
 62
7
  6
BYLAYER
 10
17.2638888889
 20
3.43309916
 11
17.2638888889
 21
3.4608769377
  0
LINE
  5
294
100
AcDbEntity
  8
0
100
AcDbLine
 62
7
  6
BYLAYER
 10
17.9166666667
 20
5.1619880485
 11
16.7222222222
 21
5.1619880485
  0
LINE
  5
295
100
AcDbEntity
  8
0
100
AcDbLine
 62
7
  6
BYLAYER
 10
17.5416666667
 20
5.129120939
 11
17.5416666667
 21
4.5442102711
  0
LINE
  5
296
100
AcDbEntity
  8
0
100
AcDbLine
 62
7
  6
BYLAYER
 10
17.5416666667
 20
4.5442102711
 11
17.5362927349
 21
4.1805025704
  0
LINE
  5
297
100
AcDbEntity
  8
0
100
AcDbLine
 62
7
  6
BYLAYER
 10
17.9166666667
 20
5.3219880489
 11
16.7222222222
 21
5.3219880489
  0
LINE
  5
298
100
AcDbEntity
  8
0
100
AcDbLine
 62
7
  6
BYLAYER
 10
17.9166666667
 20
5.1619880485
 11
17.9166666667
 21
5.3219880489
  0
LINE
  5
299
100
AcDbEntity
  8
0
100
AcDbLine
 62
7
  6
BYLAYER
 10
15.8078026067
 20
11.248791771
 11
15.6031223858
 21
11.248791771
  0
LINE
  5
29A
100
AcDbEntity
  8
0
100
AcDbLine
 62
7
  6
BYLAYER
 10
15.5732182296
 20
11.2593026052
 11
15.5818675369
 21
11.2585913546
  0
LINE
  5
29B
100
AcDbEntity
  8
0
100
AcDbLine
 62
7
  6
BYLAYER
 10
15.8546535333
 20
11.2593026052
 11
15.8633028406
 21
11.2585913546
  0
LINE
  5
29C
100
AcDbEntity
  8
0
100
AcDbLine
 62
7
  6
BYLAYER
 10
15.3968186676
 20
11.364517028
 11
15.4052920528
 21
11.3472500845
  0
LINE
  5
29D
100
AcDbEntity
  8
0
100
AcDbLine
 62
7
  6
BYLAYER
 10
15.8288651054
 20
11.2585913546
 11
15.8633028406
 21
11.2585913546
  0
LINE
  5
29E
100
AcDbEntity
  8
0
100
AcDbLine
 62
7
  6
BYLAYER
 10
15.5732182296
 20
11.2593026052
 11
15.5814646757
 21
11.2593026052
  0
LINE
  5
29F
100
AcDbEntity
  8
0
100
AcDbLine
 62
7
  6
BYLAYER
 10
15.8294469781
 20
11.2593026052
 11
15.8546535333
 21
11.2593026052
  0
LINE
  5
2A0
100
AcDbEntity
  8
0
100
AcDbLine
 62
7
  6
BYLAYER
 10
15.4052920528
 20
11.3472500845
 11
15.5374952329
 21
11.3472500845
  0
LINE
  5
2A1
100
AcDbEntity
  8
0
100
AcDbLine
 62
7
  6
BYLAYER
 10
15.8644084345
 20
11.3472500845
 11
16.6845434334
 21
11.3472500845
  0
LINE
  5
2A2
100
AcDbEntity
  8
0
100
AcDbLine
 62
7
  6
BYLAYER
 10
15.3968186676
 20
11.364517028
 11
15.5290218477
 21
11.364517028
  0
LINE
  5
2A3
100
AcDbEntity
  8
0
100
AcDbLine
 62
7
  6
BYLAYER
 10
15.8646237571
 20
11.364517028
 11
16.6760700482
 21
11.364517028
  0
LINE
  5
2A4
100
AcDbEntity
  8
0
100
AcDbLine
 62
7
  6
BYLAYER
 10
15.5781853954
 20
11.2643322513
 11
15.4934515436
 21
11.4370016869
  0
LINE
  5
2A5
100
AcDbEntity
  8
0
100
AcDbLine
 62
7
  6
BYLAYER
 10
14.8343765115
 20
11.5510898784
 11
15.5207889745
 21
11.5510898784
  0
LINE
  5
2A6
100
AcDbEntity
  8
0
100
AcDbLine
 62
7
  6
BYLAYER
 10
15.921709671
 20
11.5510898784
 11
16.7941896265
 21
11.5510898784
  0
LINE
  5
2A7
100
AcDbEntity
  8
0
100
AcDbLine
 62
7
  6
BYLAYER
 10
17.4251815676
 20
11.509581771
 11
17.4405173096
 21
11.5088546888
  0
LINE
  5
2A8
100
AcDbEntity
  8
0
100
AcDbLine
 62
7
  6
BYLAYER
 10
17.7940178461
 20
11.4920948899
 11
17.8654739235
 21
11.4887070888
  0
LINE
  5
2A9
100
AcDbEntity
  8
0
100
AcDbLine
 62
7
  6
BYLAYER
 10
16.8607106983
 20
11.6177565451
 11
16.7941896265
 21
11.6177565451
  0
LINE
  5
2AA
100
AcDbEntity
  8
0
100
AcDbLine
 62
7
  6
BYLAYER
 10
16.9681678142
 20
11.6622009895
 11
16.9016467424
 21
11.6622009895
  0
LINE
  5
2AB
100
AcDbEntity
  8
0
100
AcDbLine
 62
7
  6
BYLAYER
 10
15.5805594294
 20
11.8480010929
 11
15.5792145669
 21
11.7401551647
  0
LINE
  5
2AC
100
AcDbEntity
  8
0
100
AcDbLine
 62
7
  6
BYLAYER
 10
15.5734024918
 20
11.2740787842
 11
15.5732182296
 21
11.2593026052
  0
LINE
  5
2AD
100
AcDbEntity
  8
0
100
AcDbLine
 62
7
  6
BYLAYER
 10
18.1194940567
 20
11.7663676562
 11
18.2730042224
 21
11.7663676562
  0
LINE
  5
2AE
100
AcDbEntity
  8
0
100
AcDbLine
 62
7
  6
BYLAYER
 10
15.6185640204
 20
11.8180938053
 11
15.8232442413
 21
11.8180938053
  0
LINE
  5
2AF
100
AcDbEntity
  8
0
100
AcDbLine
 62
7
  6
BYLAYER
 10
15.5805594294
 20
11.8480010929
 11
15.8619947332
 21
11.8480010929
  0
LINE
  5
2B0
100
AcDbEntity
  8
0
100
AcDbLine
 62
7
  6
BYLAYER
 10
15.6314024048
 20
11.8596388324
 11
15.8360826257
 21
11.8596388324
  0
LINE
  5
2B1
100
AcDbEntity
  8
0
100
AcDbLine
 62
7
  6
BYLAYER
 10
15.8706440405
 20
11.8472898423
 11
15.8619947332
 21
11.8480010929
  0
LINE
  5
2B2
100
AcDbEntity
  8
0
100
AcDbLine
 62
7
  6
BYLAYER
 10
16.9962473264
 20
11.7472544599
 11
17.0128011306
 21
11.7438580123
  0
LINE
  5
2B3
100
AcDbEntity
  8
0
100
AcDbLine
 62
7
  6
BYLAYER
 10
16.9389561857
 20
11.7635699851
 11
16.9962148556
 21
11.7472637019
  0
LINE
  5
2B4
100
AcDbEntity
  8
02___PRT_ALL_AXES
100
AcDbLine
 62
7
  6
BYLAYER
 10
18.4709064536
 20
12.2484167071
 11
18.4730555026
 21
12.2487373461
  0
LINE
  5
2B5
100
AcDbEntity
  8
02___PRT_ALL_AXES
100
AcDbLine
 62
7
  6
BYLAYER
 10
18.4708504647
 20
12.3461943791
 11
18.4687014158
 21
12.3458737401
  0
LINE
  5
2B6
100
AcDbEntity
  8
0
100
AcDbLine
 62
7
  6
BYLAYER
 10
15.8482485814
 20
11.771527872
 11
15.8424417069
 21
11.3058685385
  0
LINE
  5
2B7
100
AcDbEntity
  8
0
100
AcDbLine
 62
7
  6
BYLAYER
 10
15.8619947332
 20
11.8480010929
 11
15.8546535333
 21
11.2593026052
  0
LINE
  5
2B8
100
AcDbEntity
  8
0
100
AcDbLine
 62
7
  6
BYLAYER
 10
15.8633028406
 20
11.2585913546
 11
15.8706440405
 21
11.8472898423
  0
LINE
  5
2B9
100
AcDbEntity
  8
0
100
AcDbLine
 62
7
  6
BYLAYER
 10
15.454474039
 20
11.5510898784
 11
15.3968186676
 21
11.364517028
  0
LINE
  5
2BA
100
AcDbEntity
  8
0
100
AcDbLine
 62
7
  6
BYLAYER
 10
15.5957442966
 20
11.7936453896
 11
15.4918490661
 21
11.4574403002
  0
LINE
  5
2BB
100
AcDbEntity
  8
02___PRT_ALL_AXES
100
AcDbLine
 62
7
  6
BYLAYER
 10
18.0751579801
 20
12.5337631554
 11
18.0773070291
 21
12.5340837945
  0
LINE
  5
2BC
100
AcDbEntity
  8
02___PRT_ALL_AXES
100
AcDbLine
 62
7
  6
BYLAYER
 10
18.0751019912
 20
12.6315408275
 11
18.0729529422
 21
12.6312201885
  0
LINE
  5
2BD
100
AcDbEntity
  8
0
100
AcDbLine
 62
7
  6
BYLAYER
 10
17.4302077426
 20
11.5164258543
 11
17.4293172086
 21
11.5170798469
  0
LINE
  5
2BE
100
AcDbEntity
  8
0
100
AcDbLine
 62
7
  6
BYLAYER
 10
17.4301725714
 20
11.5163835975
 11
17.4293179583
 21
11.5170775776
  0
LINE
  5
2BF
100
AcDbEntity
  8
0
100
AcDbLine
 62
7
  6
BYLAYER
 10
16.6760700482
 20
11.364517028
 11
16.6845434334
 21
11.3472500845
  0
LINE
  5
2C0
100
AcDbEntity
  8
0
100
AcDbLine
 62
7
  6
BYLAYER
 10
15.9551859071
 20
11.6594190183
 11
15.8646477031
 21
11.3664372828
  0
LINE
  5
2C1
100
AcDbEntity
  8
0
100
AcDbLine
 62
7
  6
BYLAYER
 10
15.8390957156
 20
11.2837510209
 11
15.8343420746
 21
11.2683682329
  0
LINE
  5
2C2
100
AcDbEntity
  8
0
100
AcDbLine
 62
7
  6
BYLAYER
 10
16.9389561857
 20
13.1163875495
 11
17.2213694123
 21
13.1968139731
  0
LINE
  5
2C3
100
AcDbEntity
  8
0
100
AcDbLine
 62
7
  6
BYLAYER
 10
16.9258287107
 20
11.6355733388
 11
16.9265860009
 21
11.6186787657
  0
LINE
  5
2C4
100
AcDbEntity
  8
0
100
AcDbLine
 62
7
  6
BYLAYER
 10
18.1194940567
 20
13.1135898784
 11
18.2730042224
 21
13.1135898784
  0
LINE
  5
2C5
100
AcDbEntity
  8
0
100
AcDbLine
 62
7
  6
BYLAYER
 10
16.9681678142
 20
13.2177565451
 11
16.9016467424
 21
13.2177565451
  0
LINE
  5
2C6
100
AcDbEntity
  8
0
100
AcDbLine
 62
7
  6
BYLAYER
 10
16.8607106983
 20
13.2622009895
 11
16.7941896265
 21
13.2622009895
  0
LINE
  5
2C7
100
AcDbEntity
  8
0
100
AcDbLine
 62
7
  6
BYLAYER
 10
16.7337254196
 20
11.5510898784
 11
16.6760700482
 21
11.364517028
  0
LINE
  5
2C8
100
AcDbEntity
  8
0
100
AcDbLine
 62
7
  6
BYLAYER
 10
16.6845434334
 20
11.3472500845
 11
16.7475346939
 21
11.5510898784
  0
LINE
  5
2C9
100
AcDbEntity
  8
0
100
AcDbLine
 62
7
  6
BYLAYER
 10
14.8343765115
 20
13.3288676562
 11
16.7941896265
 21
13.3288676562
  0
LINE
  5
2CA
100
AcDbEntity
  8
0
100
AcDbLine
 62
7
  6
BYLAYER
 10
17.0128011306
 20
11.7438580123
 11
17.1046114583
 21
12.0409563419
  0
LINE
  5
2CB
100
AcDbEntity
  8
0
100
AcDbLine
 62
7
  6
BYLAYER
 10
16.9856047955
 20
13.5203270389
 11
17.0344114943
 21
13.4208694438
  0
LINE
  5
2CC
100
AcDbEntity
  8
02__ASM_ALL_AXES
100
AcDbLine
 62
7
  6
BYLAYER
 10
18.1522969717
 20
12.8671428814
 11
18.1518675821
 21
12.8663405808
  0
LINE
  5
2CD
100
AcDbEntity
  8
02__ASM_ALL_AXES
100
AcDbLine
 62
7
  6
BYLAYER
 10
18.0869868347
 20
12.2155436605
 11
18.0873495973
 21
12.2135715792
  0
LINE
  5
2CE
100
AcDbEntity
  8
02__ASM_ALL_AXES
100
AcDbLine
 62
7
  6
BYLAYER
 10
18.0846425328
 20
12.2288304786
 11
18.0852614089
 21
12.2252265906
  0
LINE
  5
2CF
100
AcDbEntity
  8
02__ASM_ALL_AXES
100
AcDbLine
 62
7
  6
BYLAYER
 10
18.0711410647
 20
12.5391802623
 11
18.0707700501
 21
12.5340653382
  0
LINE
  5
2D0
100
AcDbEntity
  8
0
100
AcDbLine
 62
7
  6
BYLAYER
 10
17.9461530073
 20
13.4230150437
 11
17.9585007967
 21
13.3978528945
  0
LINE
  5
2D1
100
AcDbEntity
  8
02__ASM_ALL_AXES
100
AcDbLine
 62
7
  6
BYLAYER
 10
18.4421552228
 20
12.739767901
 11
18.4409679738
 21
12.7441379567
  0
LINE
  5
2D2
100
AcDbEntity
  8
02__ASM_ALL_AXES
100
AcDbLine
 62
7
  6
BYLAYER
 10
18.464656058
 20
12.2493514471
 11
18.4648925135
 21
12.2509265546
  0
LINE
  5
2D3
100
AcDbEntity
  8
0
100
AcDbLine
 62
7
  6
BYLAYER
 10
18.0578953816
 20
14.0465308301
 11
18.1067020803
 21
13.947073235
  0
ARC
  5
2D4
100
AcDbEntity
  8
0
100
AcDbCircle
 62
7
  6
BYLAYER
 10
6.7361111111
 20
3.4034801734
 40
0.2222222222
100
AcDbArc
 50
215.0457012297
 51
319.9509620863
  0
ARC
  5
2D5
100
AcDbEntity
  8
0
100
AcDbCircle
 62
7
  6
BYLAYER
 10
7.2105626715
 20
3.5503215794
 40
0.221007116
100
AcDbArc
 50
140.8727525201
 51
180.0
  0
ARC
  5
2D6
100
AcDbEntity
  8
0
100
AcDbCircle
 62
7
  6
BYLAYER
 10
7.2105626715
 20
4.8683802961
 40
0.221007116
100
AcDbArc
 50
180.0
 51
219.1272474799
  0
ARC
  5
2D7
100
AcDbEntity
  8
0
100
AcDbCircle
 62
7
  6
BYLAYER
 10
3.6527777778
 20
4.9760176044
 40
0.0555555556
100
AcDbArc
 50
90.0
 51
180.0
  0
ARC
  5
2D8
100
AcDbEntity
  8
0
100
AcDbCircle
 62
7
  6
BYLAYER
 10
6.9916666667
 20
5.1275949386
 40
0.0333333333
100
AcDbArc
 50
99.5940682269
 51
113.1285330602
  0
ARC
  5
2D9
100
AcDbEntity
  8
0
100
AcDbCircle
 62
7
  6
BYLAYER
 10
6.4805555556
 20
5.127594939
 40
0.0333333333
100
AcDbArc
 50
23.4443798324
 51
80.4059282108
  0
ARC
  5
2DA
100
AcDbEntity
  8
0
100
AcDbCircle
 62
7
  6
BYLAYER
 10
7.0606657088
 20
4.7464439287
 40
0.0277777778
100
AcDbArc
 50
219.1272474799
 51
255.0
  0
ARC
  5
2DB
100
AcDbEntity
  8
0
100
AcDbCircle
 62
7
  6
BYLAYER
 10
7.0606657088
 20
3.6722579468
 40
0.0277777778
100
AcDbArc
 50
105.0
 51
140.8727525201
  0
ARC
  5
2DC
100
AcDbEntity
  8
0
100
AcDbCircle
 62
7
  6
BYLAYER
 10
4.8194444444
 20
4.3482398266
 40
0.0277777778
100
AcDbArc
 50
90.0
 51
180.0
  0
ARC
  5
2DD
100
AcDbEntity
  8
0
100
AcDbCircle
 62
7
  6
BYLAYER
 10
5.0416666667
 20
4.3482398266
 40
0.0277777778
100
AcDbArc
 50
0.0
 51
90.0
  0
ARC
  5
2DE
100
AcDbEntity
  8
0
100
AcDbCircle
 62
7
  6
BYLAYER
 10
4.8194444444
 20
4.0704620489
 40
0.0277777778
100
AcDbArc
 50
180.0
 51
270.0
  0
ARC
  5
2DF
100
AcDbEntity
  8
0
100
AcDbCircle
 62
7
  6
BYLAYER
 10
5.0416666667
 20
4.0704620489
 40
0.0277777778
100
AcDbArc
 50
270.0
 51
360.0
  0
ARC
  5
2E0
100
AcDbEntity
  8
0
100
AcDbCircle
 62
7
  6
BYLAYER
 10
6.9686574255
 20
5.1399064933
 40
0.0208981301
100
AcDbArc
 50
0.0
 51
92.5
  0
ARC
  5
2E1
100
AcDbEntity
  8
0
100
AcDbCircle
 62
7
  6
BYLAYER
 10
6.9686574255
 20
3.2787953822
 40
0.0208981301
100
AcDbArc
 50
267.5
 51
360.0
  0
ARC
  5
2E2
100
AcDbEntity
  8
0
100
AcDbCircle
 62
7
  6
BYLAYER
 10
3.6527777778
 20
11.9694774444
 40
0.0555555556
100
AcDbArc
 50
180.0
 51
270.0
  0
ARC
  5
2E3
100
AcDbEntity
  8
0
100
AcDbCircle
 62
7
  6
BYLAYER
 10
5.0416666667
 20
11.3611441111
 40
0.0277777778
100
AcDbArc
 50
270.0
 51
360.0
  0
ARC
  5
2E4
100
AcDbEntity
  8
0
100
AcDbCircle
 62
7
  6
BYLAYER
 10
4.8194444444
 20
11.3611441111
 40
0.0277777778
100
AcDbArc
 50
180.0
 51
270.0
  0
ARC
  5
2E5
100
AcDbEntity
  8
0
100
AcDbCircle
 62
7
  6
BYLAYER
 10
3.6527777778
 20
13.5028107778
 40
0.0555555556
100
AcDbArc
 50
90.0
 51
180.0
  0
ARC
  5
2E6
100
AcDbEntity
  8
0
100
AcDbCircle
 62
7
  6
BYLAYER
 10
6.7361111111
 20
11.9528107778
 40
0.2222222222
100
AcDbArc
 50
222.756493333
 51
312.243506667
  0
ARC
  5
2E7
100
AcDbEntity
  8
0
100
AcDbCircle
 62
7
  6
BYLAYER
 10
7.2105626715
 20
12.0771147528
 40
0.221007116
100
AcDbArc
 50
140.8727525201
 51
180.0
  0
ARC
  5
2E8
100
AcDbEntity
  8
0
100
AcDbCircle
 62
7
  6
BYLAYER
 10
7.0606657088
 20
12.1990511202
 40
0.0277777778
100
AcDbArc
 50
105.0
 51
140.8727525201
  0
ARC
  5
2E9
100
AcDbEntity
  8
0
100
AcDbCircle
 62
7
  6
BYLAYER
 10
6.9686574255
 20
11.8055885556
 40
0.0208981301
100
AcDbArc
 50
267.5
 51
360.0
  0
CIRCLE
  5
2EA
100
AcDbEntity
  8
02___PRT_ALL_AXES
100
AcDbCircle
 62
7
  6
BYLAYER
 10
6.7361111111
 20
13.0972552222
 40
0.0488888889
  0
CIRCLE
  5
2EB
100
AcDbEntity
  8
02___PRT_ALL_AXES
100
AcDbCircle
 62
7
  6
BYLAYER
 10
6.4021995756
 20
13.2355659089
 40
0.0488888889
  0
CIRCLE
  5
2EC
100
AcDbEntity
  8
0
100
AcDbCircle
 62
7
  6
BYLAYER
 10
6.7361111111
 20
13.5694774444
 40
0.5972222222
  0
CIRCLE
  5
2ED
100
AcDbEntity
  8
02__ASM_ALL_AXES
100
AcDbCircle
 62
7
  6
BYLAYER
 10
6.7361111111
 20
13.5694774444
 40
0.4722222222
  0
CIRCLE
  5
2EE
100
AcDbEntity
  8
0
100
AcDbCircle
 62
7
  6
BYLAYER
 10
6.7361111111
 20
13.5694774444
 40
0.2777777778
  0
CIRCLE
  5
2EF
100
AcDbEntity
  8
02___PRT_ALL_AXES
100
AcDbCircle
 62
7
  6
BYLAYER
 10
6.2638888889
 20
13.5694774444
 40
0.0488888889
  0
CIRCLE
  5
2F0
100
AcDbEntity
  8
02___PRT_ALL_AXES
100
AcDbCircle
 62
7
  6
BYLAYER
 10
6.4021995756
 20
13.90338898
 40
0.0488888889
  0
CIRCLE
  5
2F1
100
AcDbEntity
  8
02___PRT_ALL_AXES
100
AcDbCircle
 62
7
  6
BYLAYER
 10
6.7361111111
 20
14.0416996667
 40
0.0488888889
  0
ARC
  5
2F2
100
AcDbEntity
  8
0
100
AcDbCircle
 62
7
  6
BYLAYER
 10
7.2105626715
 20
13.3951734695
 40
0.221007116
100
AcDbArc
 50
215.8952031673
 51
219.1272474799
  0
CIRCLE
  5
2F3
100
AcDbEntity
  8
02___PRT_ALL_AXES
100
AcDbCircle
 62
7
  6
BYLAYER
 10
7.0700226467
 20
13.2355659089
 40
0.0488888889
  0
ARC
  5
2F4
100
AcDbEntity
  8
0
100
AcDbCircle
 62
7
  6
BYLAYER
 10
7.0606657088
 20
13.2732371021
 40
0.0277777778
100
AcDbArc
 50
219.1272474799
 51
255.0
  0
CIRCLE
  5
2F5
100
AcDbEntity
  8
02___PRT_ALL_AXES
100
AcDbCircle
 62
7
  6
BYLAYER
 10
7.0700226467
 20
13.90338898
 40
0.0488888889
  0
CIRCLE
  5
2F6
100
AcDbEntity
  8
02___PRT_ALL_AXES
100
AcDbCircle
 62
7
  6
BYLAYER
 10
7.2083333333
 20
13.5694774444
 40
0.0488888889
  0
ARC
  5
2F7
100
AcDbEntity
  8
0
100
AcDbCircle
 62
7
  6
BYLAYER
 10
12.4281934807
 20
-6.5964674884
 40
20.8966721121
100
AcDbArc
 50
107.3888897287
 51
107.7744796614
  0
ARC
  5
2F8
100
AcDbEntity
  8
0
100
AcDbCircle
 62
7
  6
BYLAYER
 10
13.6447057452
 20
35.9193537075
 40
24.9348355383
100
AcDbArc
 50
252.2646614077
 51
253.1733061342
  0
CIRCLE
  5
2F9
100
AcDbEntity
  8
02___PRT_ALL_AXES
100
AcDbCircle
 62
7
  6
BYLAYER
 10
15.9976314007
 20
4.4107192636
 40
0.0488888889
  0
CIRCLE
  5
2FA
100
AcDbEntity
  8
02___PRT_ALL_AXES
100
AcDbCircle
 62
7
  6
BYLAYER
 10
15.9993939316
 20
4.0067794858
 40
0.0488888889
  0
CIRCLE
  5
2FB
100
AcDbEntity
  8
02___PRT_ALL_AXES
100
AcDbCircle
 62
7
  6
BYLAYER
 10
16.2862687853
 20
3.7223972273
 40
0.0488888889
  0
ARC
  5
2FC
100
AcDbEntity
  8
0
100
AcDbCircle
 62
7
  6
BYLAYER
 10
15.1111111111
 20
4.3497658266
 40
0.0277777778
100
AcDbArc
 50
90.0
 51
180.0
  0
ARC
  5
2FD
100
AcDbEntity
  8
0
100
AcDbCircle
 62
7
  6
BYLAYER
 10
15.1111111111
 20
4.0719880489
 40
0.0277777778
100
AcDbArc
 50
180.0
 51
270.0
  0
CIRCLE
  5
2FE
100
AcDbEntity
  8
02___PRT_ALL_AXES
100
AcDbCircle
 62
7
  6
BYLAYER
 10
16.2820136591
 20
4.6975941172
 40
0.0488888889
  0
ARC
  5
2FF
100
AcDbEntity
  8
0
100
AcDbCircle
 62
7
  6
BYLAYER
 10
16.5086485422
 20
4.2108769377
 40
1.0280929866
100
AcDbArc
 50
180.0
 51
358.3069855026
  0
CIRCLE
  5
300
100
AcDbEntity
  8
0
100
AcDbCircle
 62
7
  6
BYLAYER
 10
16.4861111111
 20
4.2108769377
 40
0.9514536856
  0
ARC
  5
301
100
AcDbEntity
  8
0
100
AcDbCircle
 62
7
  6
BYLAYER
 10
16.3781323877
 20
4.2108769377
 40
0.8975768322
100
AcDbArc
 50
117.1732349124
 51
180.0
  0
CIRCLE
  5
302
100
AcDbEntity
  8
0
100
AcDbCircle
 62
7
  6
BYLAYER
 10
16.4861111111
 20
4.2108769377
 40
0.6736111111
  0
CIRCLE
  5
303
100
AcDbEntity
  8
02__ASM_ALL_AXES
100
AcDbCircle
 62
7
  6
BYLAYER
 10
16.4861111111
 20
4.2108769377
 40
0.5277777778
  0
CIRCLE
  5
304
100
AcDbEntity
  8
0
100
AcDbCircle
 62
7
  6
BYLAYER
 10
16.4861111111
 20
4.2108769377
 40
0.3333333333
  0
CIRCLE
  5
305
100
AcDbEntity
  8
02___PRT_ALL_AXES
100
AcDbCircle
 62
7
  6
BYLAYER
 10
16.6902085631
 20
3.7241597583
 40
0.0488888889
  0
CIRCLE
  5
306
100
AcDbEntity
  8
02___PRT_ALL_AXES
100
AcDbCircle
 62
7
  6
BYLAYER
 10
16.9745908216
 20
4.0110346119
 40
0.0488888889
  0
CIRCLE
  5
307
100
AcDbEntity
  8
02___PRT_ALL_AXES
100
AcDbCircle
 62
7
  6
BYLAYER
 10
16.9728282906
 20
4.4149743897
 40
0.0488888889
  0
CIRCLE
  5
308
100
AcDbEntity
  8
02___PRT_ALL_AXES
100
AcDbCircle
 62
7
  6
BYLAYER
 10
16.6859534369
 20
4.6993566482
 40
0.0488888889
  0
ARC
  5
309
100
AcDbEntity
  8
0
100
AcDbCircle
 62
7
  6
BYLAYER
 10
17.0638888889
 20
5.129120939
 40
0.0333333333
100
AcDbArc
 50
0.0
 51
80.4059282108
  0
ARC
  5
30A
100
AcDbEntity
  8
0
100
AcDbCircle
 62
7
  6
BYLAYER
 10
17.575
 20
5.1291209386
 40
0.0333333333
100
AcDbArc
 50
99.5940682269
 51
180.0
  0
ARC
  5
30B
100
AcDbEntity
  8
0
100
AcDbCircle
 62
7
  6
BYLAYER
 10
22.6048602986
 20
31.9152757392
 40
20.5154747532
100
AcDbArc
 50
253.4621764461
 51
254.3903336965
  0
ARC
  5
30C
100
AcDbEntity
  8
0
100
AcDbCircle
 62
7
  6
BYLAYER
 10
22.1653988178
 20
29.0560589208
 40
18.0627119564
100
AcDbArc
 50
253.4255151032
 51
254.1147434976
  0
ARC
  5
30D
100
AcDbEntity
  8
0
100
AcDbCircle
 62
7
  6
BYLAYER
 10
8.4523779244
 20
8.7329561578
 40
10.5890336493
100
AcDbArc
 50
25.8819532499
 51
26.1383635562
  0
ARC
  5
30E
100
AcDbEntity
  8
0
100
AcDbCircle
 62
7
  6
BYLAYER
 10
18.7061888787
 20
12.3969826158
 40
1.6394183063
100
AcDbArc
 50
188.4361052052
 51
191.3810851517
  0
ARC
  5
30F
100
AcDbEntity
  8
0
100
AcDbCircle
 62
7
  6
BYLAYER
 10
16.8021808399
 20
11.8465779775
 40
0.2456833352
100
AcDbArc
 50
310.6242660378
 51
311.2995302463
  0
ARC
  5
310
100
AcDbEntity
  8
0
100
AcDbCircle
 62
7
  6
BYLAYER
 10
17.5645442638
 20
13.8495177931
 40
0.223070929
100
AcDbArc
 50
337.6929868226
 51
342.7663905322
  0
ARC
  5
311
100
AcDbEntity
  8
0
100
AcDbCircle
 62
7
  6
BYLAYER
 10
17.4262034252
 20
13.6922681609
 40
0.1519667855
100
AcDbArc
 50
190.0968734847
 51
191.3990494919
  0
ARC
  5
312
100
AcDbEntity
  8
0
100
AcDbCircle
 62
7
  6
BYLAYER
 10
17.4235415769
 20
13.6917064131
 40
0.1492464211
100
AcDbArc
 50
191.389614598
 51
198.5770810415
  0
ARC
  5
313
100
AcDbEntity
  8
0
100
AcDbCircle
 62
7
  6
BYLAYER
 10
17.6550988408
 20
13.8055273958
 40
0.1483581959
100
AcDbArc
 50
33.8452308245
 51
40.9468339003
  0
ARC
  5
314
100
AcDbEntity
  8
0
100
AcDbCircle
 62
7
  6
BYLAYER
 10
15.6032789566
 20
11.2766784354
 40
0.0279663204
100
AcDbArc
 50
206.1974655589
 51
223.4356573002
  0
ARC
  5
315
100
AcDbEntity
  8
0
100
AcDbCircle
 62
7
  6
BYLAYER
 10
15.6031912329
 20
11.2766586191
 40
0.0278890334
100
AcDbArc
 50
223.5300043983
 51
241.0653941607
  0
ARC
  5
316
100
AcDbEntity
  8
0
100
AcDbCircle
 62
7
  6
BYLAYER
 10
15.6031292961
 20
11.2765953108
 40
0.027803672
100
AcDbArc
 50
241.1139780669
 51
269.9962773672
  0
ARC
  5
317
100
AcDbEntity
  8
0
100
AcDbCircle
 62
7
  6
BYLAYER
 10
15.5184094941
 20
11.4492405237
 40
0.0277974968
100
AcDbArc
 50
162.8318914006
 51
206.1057920792
  0
ARC
  5
318
100
AcDbEntity
  8
0
100
AcDbCircle
 62
7
  6
BYLAYER
 10
15.8078026425
 20
11.2765694409
 40
0.0277776699
100
AcDbArc
 50
269.9999261203
 51
342.822041982
  0
ARC
  5
319
100
AcDbEntity
  8
02___PRT_ALL_AXES
100
AcDbCircle
 62
7
  6
BYLAYER
 10
17.6154463577
 20
14.1432524544
 40
0.0259413897
100
AcDbArc
 50
206.2981977784
 51
220.9397755727
  0
ARC
  5
31A
100
AcDbEntity
  8
02___PRT_ALL_AXES
100
AcDbCircle
 62
7
  6
BYLAYER
 10
17.3868281634
 20
13.4034437064
 40
0.0259413897
100
AcDbArc
 50
206.2981977785
 51
220.9397755726
  0
ARC
  5
31B
100
AcDbEntity
  8
02___PRT_ALL_AXES
100
AcDbCircle
 62
7
  6
BYLAYER
 10
17.4280538194
 20
13.4236054146
 40
0.0259413897
100
AcDbArc
 50
26.2981977785
 51
40.9397755726
  0
ARC
  5
31C
100
AcDbEntity
  8
02___PRT_ALL_AXES
100
AcDbCircle
 62
7
  6
BYLAYER
 10
17.6566720137
 20
14.1634141626
 40
0.0259413897
100
AcDbArc
 50
26.2981977786
 51
40.9397755725
  0
SPLINE
  5
31D
100
AcDbEntity
  8
0
100
AcDbSpline
 62
7
  6
BYLAYER
 70
0
 71
3
 72
31
 73
27
 74
0
 42
0.0000001
 43
0.0000001
 44
0.0000000001
 40
0.0
 40
0.0
 40
0.0
 40
0.0
 40
0.0005150634
 40
0.0009413203
 40
0.0015026851
 40
0.0030515574
 40
0.0051835776
 40
0.0112179692
 40
0.0196195047
 40
0.0303729041
 40
0.043456494
 40
0.0588428853
 40
0.0764932865
 40
0.0963667635
 40
0.118417718
 40
0.1425908702
 40
0.1688295365
 40
0.2272480453
 40
0.2931119926
 40
0.3657867772
 40
0.4445741159
 40
0.5287150947
 40
0.6174004518
 40
0.709773969
 40
0.8049412792
 40
1.0
 40
1.0
 40
1.0
 40
1.0
 10
6.5543034757
 20
3.2759684269
 30
0.0
 10
6.5544637036
 20
3.2759614312
 30
0.0
 10
6.554717724
 20
3.276208634
 30
0.0
 10
6.5549309091
 20
3.2766066003
 30
0.0
 10
6.555234022
 20
3.2773459343
 30
0.0
 10
6.555576078
 20
3.2786195522
 30
0.0
 10
6.5561790942
 20
3.2815875335
 30
0.0
 10
6.5568713138
 20
3.2867018984
 30
0.0
 10
6.5576730702
 20
3.2945047937
 30
0.0
 10
6.558479775
 20
3.3045114053
 30
0.0
 10
6.5592951516
 20
3.3166977329
 30
0.0
 10
6.5601104842
 20
3.3310357421
 30
0.0
 10
6.5609238451
 20
3.3474909675
 30
0.0
 10
6.5617314875
 20
3.3660238866
 30
0.0
 10
6.5625305884
 20
3.386589906
 30
0.0
 10
6.5633185623
 20
3.4091396629
 30
0.0
 10
6.5643892215
 20
3.4430104021
 30
0.0
 10
6.5656633004
 20
3.4898626048
 30
0.0
 10
6.5670588827
 20
3.5511754527
 30
0.0
 10
6.5683489252
 20
3.6188343212
 30
0.0
 10
6.5695135416
 20
3.6921873202
 30
0.0
 10
6.5705340132
 20
3.7705282817
 30
0.0
 10
6.5713937121
 20
3.8531018693
 30
0.0
 10
6.5720782876
 20
3.9391105911
 30
0.0
 10
6.5727470469
 20
4.0582427014
 30
0.0
 10
6.5729454275
 20
4.1486135191
 30
0.0
 10
6.5729454275
 20
4.2093509377
 30
0.0
  0
SPLINE
  5
31E
100
AcDbEntity
  8
0
100
AcDbSpline
 62
7
  6
BYLAYER
 70
0
 71
3
 72
31
 73
27
 74
0
 42
0.0000001
 43
0.0000001
 44
0.0000000001
 40
0.0
 40
0.0
 40
0.0
 40
0.0
 40
0.1948227664
 40
0.289881209
 40
0.3821564124
 40
0.470757205
 40
0.5548302765
 40
0.6335688287
 40
0.7062153587
 40
0.7720729715
 40
0.8305081721
 40
0.8567643344
 40
0.8809608804
 40
0.9030414415
 40
0.9229508415
 40
0.9406432138
 40
0.9560780468
 40
0.9692167874
 40
0.9800320696
 40
0.988502973
 40
0.9946155456
 40
0.9967908808
 40
0.9983869498
 40
0.9989739343
 40
0.9994275192
 40
1.0
 40
1.0
 40
1.0
 40
1.0
 10
6.8855073143
 20
4.2093509377
 30
0.0
 10
6.8855073143
 20
4.1476812556
 30
0.0
 10
6.8857239908
 20
4.0559213197
 30
0.0
 10
6.8864549242
 20
3.9349547022
 30
0.0
 10
6.8872036049
 20
3.8476128341
 30
0.0
 10
6.8881445345
 20
3.7637503748
 30
0.0
 10
6.8892625212
 20
3.6841754013
 30
0.0
 10
6.8905399176
 20
3.6096537103
 30
0.0
 10
6.8919567967
 20
3.540901603
 30
0.0
 10
6.8934919487
 20
3.4785806597
 30
0.0
 10
6.8948957202
 20
3.4309459146
 30
0.0
 10
6.8960770658
 20
3.396498455
 30
0.0
 10
6.8969475001
 20
3.3735550395
 30
0.0
 10
6.8978311381
 20
3.3526227671
 30
0.0
 10
6.8987251896
 20
3.3337518332
 30
0.0
 10
6.8996265927
 20
3.3169875857
 30
0.0
 10
6.9005313071
 20
3.302370166
 30
0.0
 10
6.9014370389
 20
3.2899346616
 30
0.0
 10
6.9023348513
 20
3.2797092628
 30
0.0
 10
6.9032274535
 20
3.2717188354
 30
0.0
 10
6.904001356
 20
3.2664675547
 30
0.0
 10
6.9046721161
 20
3.2634084998
 30
0.0
 10
6.9050568758
 20
3.2620845954
 30
0.0
 10
6.9053922552
 20
3.2613116302
 30
0.0
 10
6.9056390632
 20
3.2608803877
 30
0.0
 10
6.9059123558
 20
3.2606168517
 30
0.0
 10
6.9060933978
 20
3.2606089472
 30
0.0
  0
SPLINE
  5
31F
100
AcDbEntity
  8
0
100
AcDbSpline
 62
7
  6
BYLAYER
 70
0
 71
3
 72
49
 73
45
 74
0
 42
0.0000001
 43
0.0000001
 44
0.0000000001
 40
0.0
 40
0.0
 40
0.0
 40
0.0
 40
0.0751478443
 40
0.1487611181
 40
0.1845311657
 40
0.2193712924
 40
0.2531131328
 40
0.2855979438
 40
0.3166810998
 40
0.3462374816
 40
0.3741715299
 40
0.4004375923
 40
0.4129579372
 40
0.4250957354
 40
0.4368971544
 40
0.4484501221
 40
0.4599301319
 40
0.471730954
 40
0.4780453342
 40
0.4849891087
 40
0.4931094563
 40
0.4977309485
 40
0.5024177234
 40
0.506802627
 40
0.5107668211
 40
0.5177330287
 40
0.5239595028
 40
0.5298114599
 40
0.5410525871
 40
0.5522013071
 40
0.5635365126
 40
0.5751869566
 40
0.5872173951
 40
0.599660683
 40
0.6258329539
 40
0.6537233372
 40
0.683264818
 40
0.7143490023
 40
0.7468426646
 40
0.7805961109
 40
0.8154475224
 40
0.8512268327
 40
0.9248502026
 40
1.0
 40
1.0
 40
1.0
 40
1.0
 10
6.5729454275
 20
4.2093509377
 30
0.0
 10
6.5729454275
 20
4.253829915
 30
0.0
 10
6.5737281685
 20
4.3418814094
 30
0.0
 10
6.5767613119
 20
4.4510692592
 30
0.0
 10
6.5806084422
 20
4.5363483846
 30
0.0
 10
6.5842063011
 20
4.5980101387
 30
0.0
 10
6.5886121373
 20
4.6576705006
 30
0.0
 10
6.5939185995
 20
4.7150259347
 30
0.0
 10
6.6002488055
 20
4.7697860266
 30
0.0
 10
6.6077709861
 20
4.821679026
 30
0.0
 10
6.6167302267
 20
4.870450509
 30
0.0
 10
6.6258393341
 20
4.908906303
 30
0.0
 10
6.6344168217
 20
4.9378096762
 30
0.0
 10
6.6414949956
 20
4.9582056261
 30
0.0
 10
6.6495067868
 20
4.9776401142
 30
0.0
 10
6.6587564852
 20
4.9960955253
 30
0.0
 10
6.6697860439
 20
5.0135606766
 30
0.0
 10
6.6811856024
 20
5.026994171
 30
0.0
 10
6.6924969673
 20
5.036644985
 30
0.0
 10
6.7032521982
 20
5.0434145568
 30
0.0
 10
6.7142819869
 20
5.0475462034
 30
0.0
 10
6.7245127947
 20
5.0491314024
 30
0.0
 10
6.7326520578
 20
5.0491073602
 30
0.0
 10
6.7403038482
 20
5.047920877
 30
0.0
 10
6.7490106976
 20
5.0453224794
 30
0.0
 10
6.7582007302
 20
5.0408398449
 30
0.0
 10
6.7674031836
 20
5.0342694682
 30
0.0
 10
6.7775752186
 20
5.0249010578
 30
0.0
 10
6.7881676518
 20
5.0118662163
 30
0.0
 10
6.7986630326
 20
4.9948473655
 30
0.0
 10
6.8076320071
 20
4.9767183823
 30
0.0
 10
6.815497508
 20
4.9575296754
 30
0.0
 10
6.8225107753
 20
4.9373220417
 30
0.0
 10
6.8310793198
 20
4.9085882686
 30
0.0
 10
6.840257952
 20
4.8702808037
 30
0.0
 10
6.8493624293
 20
4.8216281839
 30
0.0
 10
6.8570650591
 20
4.7697961729
 30
0.0
 10
6.8635889457
 20
4.7150617375
 30
0.0
 10
6.8690886033
 20
4.657711628
 30
0.0
 10
6.8736772951
 20
4.5980460884
 30
0.0
 10
6.8774404222
 20
4.5363750073
 30
0.0
 10
6.8814787455
 20
4.451086422
 30
0.0
 10
6.8846790178
 20
4.3418899254
 30
0.0
 10
6.8855073143
 20
4.253831071
 30
0.0
 10
6.8855073143
 20
4.2093509377
 30
0.0
  0
SPLINE
  5
320
100
AcDbEntity
  8
0
100
AcDbSpline
 62
7
  6
BYLAYER
 70
0
 71
3
 72
50
 73
46
 74
0
 42
0.0000001
 43
0.0000001
 44
0.0000000001
 40
0.0
 40
0.0
 40
0.0
 40
0.0
 40
0.0086559733
 40
0.0344399396
 40
0.0768132026
 40
0.1039592288
 40
0.1348975212
 40
0.1694685002
 40
0.2074948942
 40
0.248783552
 40
0.2705876958
 40
0.2931296625
 40
0.316382951
 40
0.3403217699
 40
0.364922446
 40
0.3901666476
 40
0.4030289713
 40
0.4160531798
 40
0.4292456208
 40
0.442620886
 40
0.4562113274
 40
0.4700934239
 40
0.4772115757
 40
0.4844939604
 40
0.4919607389
 40
0.4995021567
 40
0.5069731978
 40
0.5143030591
 40
0.5285711596
 40
0.5425075489
 40
0.5561971927
 40
0.5829762391
 40
0.6090599291
 40
0.63447656
 40
0.6592234419
 40
0.6832854278
 40
0.7066418337
 40
0.7511428003
 40
0.7925330763
 40
0.8306191094
 40
0.8652178169
 40
0.9232944048
 40
0.9656217929
 40
0.9913616052
 40
1.0
 40
1.0
 40
1.0
 40
1.0
 10
6.5729454275
 20
11.8019476751
 30
0.0
 10
6.5733474153
 20
11.8051228308
 30
0.0
 10
6.5749587836
 20
11.8177544633
 30
0.0
 10
6.5786611438
 20
11.8459135347
 30
0.0
 10
6.5835378617
 20
11.8808131098
 30
0.0
 10
6.589022368
 20
11.9175499586
 30
0.0
 10
6.5943704747
 20
11.9513892828
 30
0.0
 10
6.6007534855
 20
11.9891361304
 30
0.0
 10
6.6083431924
 20
12.0305568224
 30
0.0
 10
6.615736071
 20
12.0672100363
 30
0.0
 10
6.6225470905
 20
12.0981326576
 30
0.0
 10
6.6282744924
 20
12.1224632118
 30
0.0
 10
6.634618625
 20
12.1474559323
 30
0.0
 10
6.641703885
 20
12.1730407108
 30
0.0
 10
6.6497117206
 20
12.1991242267
 30
0.0
 10
6.6573351687
 20
12.2210301859
 30
0.0
 10
6.6642590792
 20
12.238624754
 30
0.0
 10
6.6700025281
 20
12.2518874215
 30
0.0
 10
6.6764008883
 20
12.2650599566
 30
0.0
 10
6.6836687416
 20
12.2780238857
 30
0.0
 10
6.6921576707
 20
12.2905370493
 30
0.0
 10
6.700741975
 20
12.3001349985
 30
0.0
 10
6.7090639737
 20
12.3065292274
 30
0.0
 10
6.7163147785
 20
12.3102471092
 30
0.0
 10
6.7244932471
 20
12.3120188804
 30
0.0
 10
6.7328956645
 20
12.3111102246
 30
0.0
 10
6.7406072853
 20
12.3079183024
 30
0.0
 10
6.7495016938
 20
12.3017936442
 30
0.0
 10
6.7586320456
 20
12.2921958584
 30
0.0
 10
6.7675785502
 20
12.2795256223
 30
0.0
 10
6.7776648692
 20
12.262097754
 30
0.0
 10
6.7880454753
 20
12.2397446436
 30
0.0
 10
6.7984547144
 20
12.2127270271
 30
0.0
 10
6.8074033145
 20
12.1859852066
 30
0.0
 10
6.815273818
 20
12.1596901138
 30
0.0
 10
6.822298919
 20
12.133946562
 30
0.0
 10
6.830610299
 20
12.1009901877
 30
0.0
 10
6.8395805843
 20
12.0615995589
 30
0.0
 10
6.8487707481
 20
12.0166878351
 30
0.0
 10
6.8565420133
 20
11.9752297152
 30
0.0
 10
6.8648412477
 20
11.9275980982
 30
0.0
 10
6.8727100073
 20
11.878303154
 30
0.0
 10
6.8794782477
 20
11.8321551759
 30
0.0
 10
6.8833794035
 20
11.8040631121
 30
0.0
 10
6.8850822475
 20
11.7914665176
 30
0.0
 10
6.8855073143
 20
11.7883009284
 30
0.0
  0
SPLINE
  5
321
100
AcDbEntity
  8
0
100
AcDbSpline
 62
7
  6
BYLAYER
 70
0
 71
3
 72
15
 73
11
 74
0
 42
0.0000001
 43
0.0000001
 44
0.0000000001
 40
0.0
 40
0.0
 40
0.0
 40
0.0
 40
0.0353309172
 40
0.0626780162
 40
0.0976426246
 40
0.1905885305
 40
0.3127142789
 40
0.4602280151
 40
0.6281682289
 40
1.0
 40
1.0
 40
1.0
 40
1.0
 10
4.7916666667
 20
11.858172965
 30
0.0
 10
4.7916666667
 20
11.8585120224
 30
0.0
 10
4.7921238761
 20
11.8590451885
 30
0.0
 10
4.7929005876
 20
11.8595271947
 30
0.0
 10
4.7942644641
 20
11.8601607595
 30
0.0
 10
4.79656282
 20
11.8608538309
 30
0.0
 10
4.7999705408
 20
11.8615778096
 30
0.0
 10
4.804126685
 20
11.8621902103
 30
0.0
 10
4.8106922769
 20
11.8628372686
 30
0.0
 10
4.8158761168
 20
11.8630200197
 30
0.0
 10
4.8194444444
 20
11.8630200197
 30
0.0
  0
SPLINE
  5
322
100
AcDbEntity
  8
0
100
AcDbSpline
 62
7
  6
BYLAYER
 70
0
 71
3
 72
15
 73
11
 74
0
 42
0.0000001
 43
0.0000001
 44
0.0000000001
 40
0.0
 40
0.0
 40
0.0
 40
0.0
 40
0.3718317711
 40
0.5397719849
 40
0.6872857211
 40
0.8094114695
 40
0.9023573754
 40
0.9373219838
 40
0.9646690828
 40
1.0
 40
1.0
 40
1.0
 40
1.0
 10
5.0416666667
 20
11.8630200197
 30
0.0
 10
5.0452349944
 20
11.8630200197
 30
0.0
 10
5.0504188342
 20
11.8628372686
 30
0.0
 10
5.0569844261
 20
11.8621902103
 30
0.0
 10
5.0611405703
 20
11.8615778096
 30
0.0
 10
5.0645482911
 20
11.8608538309
 30
0.0
 10
5.066846647
 20
11.8601607595
 30
0.0
 10
5.0682105235
 20
11.8595271947
 30
0.0
 10
5.068987235
 20
11.8590451885
 30
0.0
 10
5.0694444444
 20
11.8585120224
 30
0.0
 10
5.0694444444
 20
11.858172965
 30
0.0
  0
SPLINE
  5
323
100
AcDbEntity
  8
0
100
AcDbSpline
 62
7
  6
BYLAYER
 70
0
 71
3
 72
15
 73
11
 74
0
 42
0.0000001
 43
0.0000001
 44
0.0000000001
 40
0.0
 40
0.0
 40
0.0
 40
0.0
 40
0.1662930626
 40
0.3211901286
 40
0.4639449091
 40
0.5941553204
 40
0.7118479242
 40
0.8176336176
 40
0.9128965348
 40
1.0
 40
1.0
 40
1.0
 40
1.0
 10
16.7605698772
 20
12.8630188846
 30
0.0
 10
16.7658186821
 20
12.8800040235
 30
0.0
 10
16.7768627761
 20
12.9125422292
 30
0.0
 10
16.7958206674
 20
12.9584160448
 30
0.0
 10
16.8164405915
 20
12.9993024715
 30
0.0
 10
16.8385351977
 20
13.0348214025
 30
0.0
 10
16.861916946
 20
13.0646498039
 30
0.0
 10
16.8864204348
 20
13.0885132726
 30
0.0
 10
16.9118708066
 20
13.1061549223
 30
0.0
 10
16.9299994744
 20
13.1138364887
 30
0.0
 10
16.9389552011
 20
13.1163870571
 30
0.0
  0
SPLINE
  5
324
100
AcDbEntity
  8
0
100
AcDbSpline
 62
7
  6
BYLAYER
 70
0
 71
3
 72
28
 73
24
 74
0
 42
0.0000001
 43
0.0000001
 44
0.0000000001
 40
0.0
 40
0.0
 40
0.0
 40
0.0
 40
0.0655518768
 40
0.1354316153
 40
0.2086822746
 40
0.2842450673
 40
0.3610006132
 40
0.4377979171
 40
0.5134849631
 40
0.5869387253
 40
0.6570964817
 40
0.7229895884
 40
0.7837821939
 40
0.8120607011
 40
0.83883805
 40
0.8640725237
 40
0.8877441752
 40
0.9098600117
 40
0.9304586615
 40
0.9496182228
 40
0.9674643407
 40
0.9841776364
 40
1.0
 40
1.0
 40
1.0
 40
1.0
 10
16.7605698772
 20
12.8630188846
 30
0.0
 10
16.7529729434
 20
12.8384351978
 30
0.0
 10
16.7392905242
 20
12.7870098112
 30
0.0
 10
16.7234865948
 20
12.7065864779
 30
0.0
 10
16.7119396994
 20
12.6214763534
 30
0.0
 10
16.7048595604
 20
12.533176563
 30
0.0
 10
16.7023731272
 20
12.4432370157
 30
0.0
 10
16.704525156
 20
12.3532402805
 30
0.0
 10
16.7112768089
 20
12.2647692028
 30
0.0
 10
16.7225067754
 20
12.1793789955
 30
0.0
 10
16.7380129973
 20
12.0985639465
 30
0.0
 10
16.757518108
 20
12.0237399483
 30
0.0
 10
16.777265373
 20
11.9661241596
 30
0.0
 10
16.7949618706
 20
11.9242181515
 30
0.0
 10
16.8086786978
 20
11.8958269761
 30
0.0
 10
16.823100049
 20
11.8698342683
 30
0.0
 10
16.8381659505
 20
11.846352443
 30
0.0
 10
16.8538130097
 20
11.8254820581
 30
0.0
 10
16.8699795014
 20
11.8073133651
 30
0.0
 10
16.8866030511
 20
11.7919267011
 30
0.0
 10
16.9036242726
 20
11.7793932701
 30
0.0
 10
16.920975287
 20
11.7697836017
 30
0.0
 10
16.9329863616
 20
11.7652699637
 30
0.0
 10
16.9389596179
 20
11.7635691862
 30
0.0
  0
SPLINE
  5
325
100
AcDbEntity
  8
0
100
AcDbSpline
 62
7
  6
BYLAYER
 70
0
 71
3
 72
20
 73
16
 74
0
 42
0.0000001
 43
0.0000001
 44
0.0000000001
 40
0.0
 40
0.0
 40
0.0
 40
0.0
 40
0.1695526002
 40
0.3299875829
 40
0.4786468762
 40
0.5478669647
 40
0.6133669897
 40
0.6749789596
 40
0.7325949129
 40
0.7861777576
 40
0.8357835292
 40
0.8815768205
 40
0.9238614396
 40
0.9631135318
 40
1.0
 40
1.0
 40
1.0
 40
1.0
 10
16.7651664486
 20
12.248484438
 30
0.0
 10
16.7687630764
 20
12.2161632151
 30
0.0
 10
16.7776473673
 20
12.1534455003
 30
0.0
 10
16.7965593266
 20
12.0635388233
 30
0.0
 10
16.8168401072
 20
11.9937700669
 30
0.0
 10
16.8355988694
 20
11.942736524
 30
0.0
 10
16.8503671103
 20
11.9080763502
 30
0.0
 10
16.8660886089
 20
11.8763001368
 30
0.0
 10
16.8826807183
 20
11.8475760635
 30
0.0
 10
16.9000596907
 20
11.8220564339
 30
0.0
 10
16.9181382182
 20
11.7998740578
 30
0.0
 10
16.9368328282
 20
11.7811486805
 30
0.0
 10
16.9560631216
 20
11.765983595
 30
0.0
 10
16.9757402781
 20
11.7544802288
 30
0.0
 10
16.9894424414
 20
11.7491913373
 30
0.0
 10
16.9962473681
 20
11.7472554272
 30
0.0
  0
SPLINE
  5
326
100
AcDbEntity
  8
02__ASM_ALL_AXES
100
AcDbSpline
 62
7
  6
BYLAYER
 70
0
 71
3
 72
48
 73
44
 74
0
 42
0.0000001
 43
0.0000001
 44
0.0000000001
 40
0.0
 40
0.0
 40
0.0
 40
0.0
 40
0.0625
 40
0.125
 40
0.140625
 40
0.15625
 40
0.1640625
 40
0.171875
 40
0.1875
 40
0.21875
 40
0.25
 40
0.28125
 40
0.3125
 40
0.328125
 40
0.34375
 40
0.375
 40
0.40625
 40
0.4375
 40
0.46875
 40
0.484375
 40
0.4921875
 40
0.5
 40
0.5078125
 40
0.515625
 40
0.53125
 40
0.5625
 40
0.625
 40
0.640625
 40
0.65625
 40
0.6640625
 40
0.671875
 40
0.6875
 40
0.71875
 40
0.75
 40
0.78125
 40
0.8125
 40
0.828125
 40
0.8359375
 40
0.84375
 40
0.859375
 40
0.875
 40
0.9375
 40
1.0
 40
1.0
 40
1.0
 40
1.0
 10
18.4007614486
 20
12.8534013029
 30
0.0
 10
18.3990960621
 20
12.8565237194
 30
0.0
 10
18.3957658472
 20
12.8627706913
 30
0.0
 10
18.392016843
 20
12.8697889088
 30
0.0
 10
18.3895211709
 20
12.8744817584
 30
0.0
 10
18.3884758987
 20
12.8764163898
 30
0.0
 10
18.3876522957
 20
12.8780124252
 30
0.0
 10
18.3867825609
 20
12.8794317175
 30
0.0
 10
18.3852390379
 20
12.8818332631
 30
0.0
 10
18.3830456048
 20
12.8853076505
 30
0.0
 10
18.3804069193
 20
12.8894555189
 30
0.0
 10
18.3777759376
 20
12.8936192006
 30
0.0
 10
18.3755632451
 20
12.8970540547
 30
0.0
 10
18.3738377378
 20
12.8998777449
 30
0.0
 10
18.3719498099
 20
12.9024261119
 30
0.0
 10
18.3695341683
 20
12.9055173185
 30
0.0
 10
18.3666593101
 20
12.9092663948
 30
0.0
 10
18.363777976
 20
12.9130077608
 30
0.0
 10
18.361378524
 20
12.9161182432
 30
0.0
 10
18.3596982553
 20
12.9183143317
 30
0.0
 10
18.3587387222
 20
12.919539292
 30
0.0
 10
18.3580173975
 20
12.9205424971
 30
0.0
 10
18.3573024619
 20
12.9212227363
 30
0.0
 10
18.3563469878
 20
12.922242379
 30
0.0
 10
18.3546759269
 20
12.9239742352
 30
0.0
 10
18.3513332689
 20
12.9274767209
 30
0.0
 10
18.3479897525
 20
12.9309566415
 30
0.0
 10
18.3451261039
 20
12.933960089
 30
0.0
 10
18.3439296213
 20
12.9351878401
 30
0.0
 10
18.3429801227
 20
12.9362248199
 30
0.0
 10
18.342002511
 20
12.9370616326
 30
0.0
 10
18.34027861
 20
12.9384330067
 30
0.0
 10
18.3378228551
 20
12.9404410523
 30
0.0
 10
18.3348724356
 20
12.9428284779
 30
0.0
 10
18.3319249334
 20
12.9452265166
 30
0.0
 10
18.3294618851
 20
12.9472080294
 30
0.0
 10
18.3277507477
 20
12.9486258359
 30
0.0
 10
18.3267527142
 20
12.9493883569
 30
0.0
 10
18.3256784692
 20
12.9499715101
 30
0.0
 10
18.3243617129
 20
12.9507617616
 30
0.0
 10
18.3211800526
 20
12.9526078925
 30
0.0
 10
18.3164166417
 20
12.9553984584
 30
0.0
 10
18.3121788092
 20
12.957870278
 30
0.0
 10
18.3100603541
 20
12.9591072732
 30
0.0
  0
SPLINE
  5
327
100
AcDbEntity
  8
02__ASM_ALL_AXES
100
AcDbSpline
 62
7
  6
BYLAYER
 70
0
 71
3
 72
65
 73
61
 74
0
 42
0.0000001
 43
0.0000001
 44
0.0000000001
 40
0.0
 40
0.0
 40
0.0
 40
0.0
 40
0.0625
 40
0.09375
 40
0.125
 40
0.140625
 40
0.15625
 40
0.1640625
 40
0.16796875
 40
0.171875
 40
0.1796875
 40
0.1875
 40
0.21875
 40
0.25
 40
0.28125
 40
0.3125
 40
0.3203125
 40
0.328125
 40
0.33203125
 40
0.3359375
 40
0.34375
 40
0.359375
 40
0.375
 40
0.40625
 40
0.4375
 40
0.453125
 40
0.46875
 40
0.484375
 40
0.4921875
 40
0.49609375
 40
0.5
 40
0.50390625
 40
0.5078125
 40
0.515625
 40
0.53125
 40
0.546875
 40
0.5625
 40
0.59375
 40
0.625
 40
0.640625
 40
0.65625
 40
0.6640625
 40
0.66796875
 40
0.671875
 40
0.6796875
 40
0.6875
 40
0.71875
 40
0.75
 40
0.78125
 40
0.8125
 40
0.8203125
 40
0.828125
 40
0.83203125
 40
0.8359375
 40
0.84375
 40
0.859375
 40
0.875
 40
0.90625
 40
0.9375
 40
1.0
 40
1.0
 40
1.0
 40
1.0
 10
18.3100603538
 20
12.9591072733
 30
0.0
 10
18.3072146924
 20
12.9600287571
 30
0.0
 10
18.3029461456
 20
12.9614105765
 30
0.0
 10
18.2972549686
 20
12.9632546272
 30
0.0
 10
18.2936975271
 20
12.964403774
 30
0.0
 10
18.2908526135
 20
12.9653308089
 30
0.0
 10
18.2890721715
 20
12.9658926044
 30
0.0
 10
18.2878306137
 20
12.9663211358
 30
0.0
 10
18.2871137178
 20
12.9665108207
 30
0.0
 10
18.2863688206
 20
12.9664926313
 30
0.0
 10
18.2854472698
 20
12.9665409485
 30
0.0
 10
18.2832276726
 20
12.9665984154
 30
0.0
 10
18.27990156
 20
12.9667093831
 30
0.0
 10
18.2754649833
 20
12.9668422364
 30
0.0
 10
18.2710284419
 20
12.9669826675
 30
0.0
 10
18.2677022497
 20
12.967076585
 30
0.0
 10
18.2654827542
 20
12.9671558383
 30
0.0
 10
18.2645610173
 20
12.9671642928
 30
0.0
 10
18.2638165042
 20
12.9672283547
 30
0.0
 10
18.2630980429
 20
12.9670828776
 30
0.0
 10
18.2618528399
 20
12.9667309365
 30
0.0
 10
18.2600676628
 20
12.9662789573
 30
0.0
 10
18.2572149103
 20
12.9655274144
 30
0.0
 10
18.2536477507
 20
12.9645976321
 30
0.0
 10
18.2500810532
 20
12.963664735
 30
0.0
 10
18.2472275614
 20
12.9629181757
 30
0.0
 10
18.2450875668
 20
12.96236085
 30
0.0
 10
18.2433038796
 20
12.9618878665
 30
0.0
 10
18.2420559967
 20
12.9615735887
 30
0.0
 10
18.2413418315
 20
12.9613677468
 30
0.0
 10
18.2408092759
 20
12.9612873262
 30
0.0
 10
18.2402649916
 20
12.9609241894
 30
0.0
 10
18.2395433703
 20
12.9605386216
 30
0.0
 10
18.2382786268
 20
12.9598179323
 30
0.0
 10
18.2364728476
 20
12.9588123914
 30
0.0
 10
18.234305483
 20
12.9575954878
 30
0.0
 10
18.2314158272
 20
12.9559764074
 30
0.0
 10
18.227803604
 20
12.9539522605
 30
0.0
 10
18.2241917899
 20
12.9519249771
 30
0.0
 10
18.2213014795
 20
12.9503109152
 30
0.0
 10
18.2194969789
 20
12.9492842828
 30
0.0
 10
18.2182299352
 20
12.9486014133
 30
0.0
 10
18.2175120013
 20
12.9481552298
 30
0.0
 10
18.2168170092
 20
12.9474982264
 30
0.0
 10
18.2159404272
 20
12.9467490328
 30
0.0
 10
18.2138430869
 20
12.9448916461
 30
0.0
 10
18.2106943298
 20
12.9421306683
 30
0.0
 10
18.2064977231
 20
12.9384341295
 30
0.0
 10
18.2023000316
 20
12.9347449795
 30
0.0
 10
18.1991537153
 20
12.9319673771
 30
0.0
 10
18.1970532562
 20
12.930131233
 30
0.0
 10
18.1961823808
 20
12.9293431715
 30
0.0
 10
18.1954756138
 20
12.9287663668
 30
0.0
 10
18.1948056607
 20
12.927993385
 30
0.0
 10
18.1936503473
 20
12.9265495186
 30
0.0
 10
18.1919909753
 20
12.9245344089
 30
0.0
 10
18.1893409675
 20
12.921283656
 30
0.0
 10
18.1860267494
 20
12.917229319
 30
0.0
 10
18.1807249595
 20
12.9107372686
 30
0.0
 10
18.1767484012
 20
12.9058693808
 30
0.0
 10
18.1740974104
 20
12.9026238668
 30
0.0
  0
SPLINE
  5
328
100
AcDbEntity
  8
02__ASM_ALL_AXES
100
AcDbSpline
 62
7
  6
BYLAYER
 70
0
 71
3
 72
19
 73
15
 74
0
 42
0.0000001
 43
0.0000001
 44
0.0000000001
 40
0.0
 40
0.0
 40
0.0
 40
0.0
 40
0.0625
 40
0.125
 40
0.15625
 40
0.1875
 40
0.25
 40
0.3125
 40
0.375
 40
0.5
 40
0.75
 40
0.8125
 40
0.875
 40
1.0
 40
1.0
 40
1.0
 40
1.0
 10
18.174097409
 20
12.9026238649
 30
0.0
 10
18.1737841815
 20
12.9021749529
 30
0.0
 10
18.1731616688
 20
12.901283853
 30
0.0
 10
18.1723638164
 20
12.9001363585
 30
0.0
 10
18.1717669285
 20
12.8992889641
 30
0.0
 10
18.1710202338
 20
12.8981860609
 30
0.0
 10
18.1700363073
 20
12.8967162639
 30
0.0
 10
18.1688740375
 20
12.8950056844
 30
0.0
 10
18.1673338447
 20
12.8926357931
 30
0.0
 10
18.1646413519
 20
12.8885113717
 30
0.0
 10
18.1619904243
 20
12.8841201868
 30
0.0
 10
18.1597508668
 20
12.8803993279
 30
0.0
 10
18.1582064477
 20
12.8777363222
 30
0.0
 10
18.1570363772
 20
12.8756948933
 30
0.0
 10
18.1562589427
 20
12.8743437573
 30
0.0
  0
LINE
  5
329
100
AcDbEntity
  8
02__ASM_ALL_AXES
100
AcDbLine
 62
7
  6
BYLAYER
 10
18.1562589431
 20
12.8743437582
 11
18.1522969717
 21
12.8671428814
  0
SPLINE
  5
32A
100
AcDbEntity
  8
02__ASM_ALL_AXES
100
AcDbSpline
 62
7
  6
BYLAYER
 70
0
 71
3
 72
50
 73
46
 74
0
 42
0.0000001
 43
0.0000001
 44
0.0000000001
 40
0.0
 40
0.0
 40
0.0
 40
0.0
 40
0.0625
 40
0.09375
 40
0.125
 40
0.140625
 40
0.15625
 40
0.1640625
 40
0.171875
 40
0.1875
 40
0.21875
 40
0.25
 40
0.28125
 40
0.3125
 40
0.328125
 40
0.3359375
 40
0.34375
 40
0.359375
 40
0.375
 40
0.4375
 40
0.46875
 40
0.484375
 40
0.4921875
 40
0.5
 40
0.5078125
 40
0.515625
 40
0.53125
 40
0.5625
 40
0.625
 40
0.640625
 40
0.65625
 40
0.6640625
 40
0.671875
 40
0.6875
 40
0.71875
 40
0.75
 40
0.78125
 40
0.8125
 40
0.828125
 40
0.8359375
 40
0.84375
 40
0.859375
 40
0.875
 40
0.9375
 40
1.0
 40
1.0
 40
1.0
 40
1.0
 10
18.1518675821
 20
12.8663405808
 30
0.0
 10
18.1499816462
 20
12.8624447622
 30
0.0
 10
18.1471528667
 20
12.8566001956
 30
0.0
 10
18.1433806632
 20
12.848810795
 30
0.0
 10
18.1410240724
 20
12.8439354304
 30
0.0
 10
18.1391364369
 20
12.8400510741
 30
0.0
 10
18.1379620537
 20
12.8375870077
 30
0.0
 10
18.1370102043
 20
12.8356989955
 30
0.0
 10
18.1361034152
 20
12.8335070948
 30
0.0
 10
18.1345374898
 20
12.8295300308
 30
0.0
 10
18.132289353
 20
12.8239227048
 30
0.0
 10
18.1295969728
 20
12.8171606119
 30
0.0
 10
18.1269008173
 20
12.8104130153
 30
0.0
 10
18.124662119
 20
12.8047694485
 30
0.0
 10
18.1230796761
 20
12.8008558058
 30
0.0
 10
18.1221993149
 20
12.798562431
 30
0.0
 10
18.1214089137
 20
12.7960544995
 30
0.0
 10
18.1203901414
 20
12.7929929662
 30
0.0
 10
18.1179706081
 20
12.7855844974
 30
0.0
 10
18.1151372765
 20
12.7769655981
 30
0.0
 10
18.112313243
 20
12.7683269461
 30
0.0
 10
18.1108936048
 20
12.7640226607
 30
0.0
 10
18.1100941199
 20
12.7615401069
 30
0.0
 10
18.1094614732
 20
12.7597427806
 30
0.0
 10
18.1089550902
 20
12.7576985793
 30
0.0
 10
18.1082358679
 20
12.7550590933
 30
0.0
 10
18.1069977776
 20
12.7503998399
 30
0.0
 10
18.1045062498
 20
12.7411110618
 30
0.0
 10
18.1020246106
 20
12.7318045226
 30
0.0
 10
18.0998872637
 20
12.7238443137
 30
0.0
 10
18.0990090395
 20
12.7205079766
 30
0.0
 10
18.0982778742
 20
12.7178842245
 30
0.0
 10
18.0976511831
 20
12.7150948686
 30
0.0
 10
18.0966030425
 20
12.71013651
 30
0.0
 10
18.0950801336
 20
12.7030936611
 30
0.0
 10
18.0932643416
 20
12.6946237111
 30
0.0
 10
18.0914426588
 20
12.6861630534
 30
0.0
 10
18.0899344771
 20
12.679096974
 30
0.0
 10
18.0888605638
 20
12.6741792688
 30
0.0
 10
18.0882751091
 20
12.6713248674
 30
0.0
 10
18.0877958425
 20
12.6683037733
 30
0.0
 10
18.0871604628
 20
12.6645843831
 30
0.0
 10
18.0856654322
 20
12.6556109408
 30
0.0
 10
18.0834102352
 20
12.6421706367
 30
0.0
 10
18.0814107565
 20
12.6302156299
 30
0.0
 10
18.0804103745
 20
12.6242391352
 30
0.0
  0
SPLINE
  5
32B
100
AcDbEntity
  8
02__ASM_ALL_AXES
100
AcDbSpline
 62
7
  6
BYLAYER
 70
0
 71
3
 72
27
 73
23
 74
0
 42
0.0000001
 43
0.0000001
 44
0.0000000001
 40
0.0
 40
0.0
 40
0.0
 40
0.0
 40
0.0625
 40
0.125
 40
0.15625
 40
0.171875
 40
0.1875
 40
0.21875
 40
0.25
 40
0.3125
 40
0.375
 40
0.5
 40
0.625
 40
0.6875
 40
0.75
 40
0.78125
 40
0.8125
 40
0.828125
 40
0.84375
 40
0.875
 40
0.9375
 40
1.0
 40
1.0
 40
1.0
 40
1.0
 10
18.0804103726
 20
12.6242391226
 30
0.0
 10
18.0801984196
 20
12.6227218255
 30
0.0
 10
18.0797747481
 20
12.619691569
 30
0.0
 10
18.0792439861
 20
12.6158820594
 30
0.0
 10
18.0788746074
 20
12.6132552563
 30
0.0
 10
18.0786601918
 20
12.6116924122
 30
0.0
 10
18.0784332883
 20
12.6098967762
 30
0.0
 10
18.0781536131
 20
12.6077321965
 30
0.0
 10
18.0777058016
 20
12.604222675
 30
0.0
 10
18.0771327039
 20
12.5998623672
 30
0.0
 10
18.0763017434
 20
12.5928080601
 30
0.0
 10
18.0752447876
 20
12.5840050333
 30
0.0
 10
18.0743444847
 20
12.5750857207
 30
0.0
 10
18.07360979
 20
12.5679648202
 30
0.0
 10
18.0732054998
 20
12.5634727824
 30
0.0
 10
18.0728704427
 20
12.559899162
 30
0.0
 10
18.0726626473
 20
12.557636362
 30
0.0
 10
18.0724954405
 20
12.5558914089
 30
0.0
 10
18.0723308233
 20
12.5539087381
 30
0.0
 10
18.0720439025
 20
12.5503285946
 30
0.0
 10
18.0716334055
 20
12.5452722458
 30
0.0
 10
18.0713051939
 20
12.5412094473
 30
0.0
 10
18.0711410648
 20
12.539180263
 30
0.0
  0
SPLINE
  5
32C
100
AcDbEntity
  8
02__ASM_ALL_AXES
100
AcDbSpline
 62
7
  6
BYLAYER
 70
0
 71
3
 72
41
 73
37
 74
0
 42
0.0000001
 43
0.0000001
 44
0.0000000001
 40
0.0
 40
0.0
 40
0.0
 40
0.0
 40
0.0625
 40
0.125
 40
0.15625
 40
0.171875
 40
0.1875
 40
0.21875
 40
0.25
 40
0.28125
 40
0.3125
 40
0.328125
 40
0.34375
 40
0.375
 40
0.4375
 40
0.46875
 40
0.484375
 40
0.5
 40
0.515625
 40
0.53125
 40
0.5625
 40
0.625
 40
0.65625
 40
0.671875
 40
0.6875
 40
0.71875
 40
0.75
 40
0.78125
 40
0.8125
 40
0.828125
 40
0.8359375
 40
0.84375
 40
0.859375
 40
0.875
 40
0.9375
 40
1.0
 40
1.0
 40
1.0
 40
1.0
 10
18.0707700501
 20
12.5340653382
 30
0.0
 10
18.07044378
 20
12.5276745695
 30
0.0
 10
18.0697866798
 20
12.5148939888
 30
0.0
 10
18.0689881049
 20
12.4989134793
 30
0.0
 10
18.0683872068
 20
12.4877359126
 30
0.0
 10
18.0681088174
 20
12.4813350983
 30
0.0
 10
18.0680752844
 20
12.4748829524
 30
0.0
 10
18.0679487942
 20
12.4668353616
 30
0.0
 10
18.0678356768
 20
12.4571708107
 30
0.0
 10
18.0677031939
 20
12.4475078809
 30
0.0
 10
18.0676251176
 20
12.4394562374
 30
0.0
 10
18.0674947568
 20
12.4330121968
 30
0.0
 10
18.0676101339
 20
12.4265784211
 30
0.0
 10
18.0679251296
 20
12.4153237402
 30
0.0
 10
18.0682436145
 20
12.4024614924
 30
0.0
 10
18.0685181673
 20
12.391201957
 30
0.0
 10
18.068702875
 20
12.3847765034
 30
0.0
 10
18.0687591223
 20
12.3799331616
 30
0.0
 10
18.0691305935
 20
12.3751825425
 30
0.0
 10
18.0695161998
 20
12.3688159481
 30
0.0
 10
18.0702394571
 20
12.3576904531
 30
0.0
 10
18.0710628994
 20
12.3449628844
 30
0.0
 10
18.0717432011
 20
12.3338435991
 30
0.0
 10
18.0722024456
 20
12.3274663594
 30
0.0
 10
18.0729294216
 20
12.3210021842
 30
0.0
 10
18.073746091
 20
12.3129515076
 30
0.0
 10
18.0747663399
 20
12.3032792957
 30
0.0
 10
18.0757728873
 20
12.2936054157
 30
0.0
 10
18.0766238104
 20
12.2855589092
 30
0.0
 10
18.0771999704
 20
12.2798954582
 30
0.0
 10
18.0775589695
 20
12.2767076477
 30
0.0
 10
18.0780298841
 20
12.2737023424
 30
0.0
 10
18.0785802734
 20
12.2698833284
 30
0.0
 10
18.0799326998
 20
12.2607690502
 30
0.0
 10
18.081948006
 20
12.2470758897
 30
0.0
 10
18.0837448073
 20
12.2349130268
 30
0.0
 10
18.0846425307
 20
12.2288304909
 30
0.0
  0
LINE
  5
32D
100
AcDbEntity
  8
02__ASM_ALL_AXES
100
AcDbLine
 62
7
  6
BYLAYER
 10
18.0852614089
 20
12.2252265905
 11
18.0869868347
 21
12.2155436607
  0
SPLINE
  5
32E
100
AcDbEntity
  8
02__ASM_ALL_AXES
100
AcDbSpline
 62
7
  6
BYLAYER
 70
0
 71
3
 72
39
 73
35
 74
0
 42
0.0000001
 43
0.0000001
 44
0.0000000001
 40
0.0
 40
0.0
 40
0.0
 40
0.0
 40
0.0625
 40
0.125
 40
0.15625
 40
0.171875
 40
0.1875
 40
0.25
 40
0.28125
 40
0.3125
 40
0.328125
 40
0.34375
 40
0.375
 40
0.4375
 40
0.46875
 40
0.484375
 40
0.5
 40
0.515625
 40
0.53125
 40
0.5625
 40
0.625
 40
0.65625
 40
0.671875
 40
0.6875
 40
0.71875
 40
0.75
 40
0.78125
 40
0.8125
 40
0.828125
 40
0.84375
 40
0.859375
 40
0.875
 40
0.9375
 40
1.0
 40
1.0
 40
1.0
 40
1.0
 10
18.0873495973
 20
12.2135715792
 30
0.0
 10
18.0882190698
 20
12.2092830565
 30
0.0
 10
18.0899547824
 20
12.2007063129
 30
0.0
 10
18.0921405852
 20
12.1899838745
 30
0.0
 10
18.0936409493
 20
12.18248094
 30
0.0
 10
18.0945443622
 20
12.1781892489
 30
0.0
 10
18.0961500683
 20
12.1717276444
 30
0.0
 10
18.0979404653
 20
12.1642007829
 30
0.0
 10
18.1000203671
 20
12.1555826874
 30
0.0
 10
18.1013307445
 20
12.1502229527
 30
0.0
 10
18.10234556
 20
12.1458753769
 30
0.0
 10
18.1034859698
 20
12.1417456935
 30
0.0
 10
18.1055397218
 20
12.1346189592
 30
0.0
 10
18.107865373
 20
12.1264381079
 30
0.0
 10
18.1098987046
 20
12.1192741832
 30
0.0
 10
18.1110741207
 20
12.1152082548
 30
0.0
 10
18.1119156067
 20
12.1120772025
 30
0.0
 10
18.1129106409
 20
12.109258703
 30
0.0
 10
18.1141839032
 20
12.1053919438
 30
0.0
 10
18.1164359177
 20
12.0986731595
 30
0.0
 10
18.1190067614
 20
12.0909913818
 30
0.0
 10
18.1212400228
 20
12.0842300954
 30
0.0
 10
18.1225454332
 20
12.0804361968
 30
0.0
 10
18.1239621943
 20
12.0769071215
 30
0.0
 10
18.1256947383
 20
12.0724042201
 30
0.0
 10
18.12779112
 20
12.0670429781
 30
0.0
 10
18.1298796378
 20
12.0616592688
 30
0.0
 10
18.1316318417
 20
12.0572125359
 30
0.0
 10
18.1330092829
 20
12.0535711235
 30
0.0
 10
18.134108266
 20
12.0510683276
 30
0.0
 10
18.135225697
 20
12.048629446
 30
0.0
 10
18.1374510672
 20
12.0437187973
 30
0.0
 10
18.1407931412
 20
12.0363667475
 30
0.0
 10
18.1437622406
 20
12.0298259345
 30
0.0
 10
18.1452469944
 20
12.0265562352
 30
0.0
  0
SPLINE
  5
32F
100
AcDbEntity
  8
02__ASM_ALL_AXES
100
AcDbSpline
 62
7
  6
BYLAYER
 70
0
 71
3
 72
32
 73
28
 74
0
 42
0.0000001
 43
0.0000001
 44
0.0000000001
 40
0.0
 40
0.0
 40
0.0
 40
0.0
 40
0.125
 40
0.15625
 40
0.1875
 40
0.25
 40
0.28125
 40
0.3125
 40
0.328125
 40
0.34375
 40
0.375
 40
0.4375
 40
0.46875
 40
0.5
 40
0.53125
 40
0.5625
 40
0.625
 40
0.65625
 40
0.671875
 40
0.6875
 40
0.71875
 40
0.75
 40
0.8125
 40
0.84375
 40
0.875
 40
0.9375
 40
1.0
 40
1.0
 40
1.0
 40
1.0
 10
18.1452469962
 20
12.0265562317
 30
0.0
 10
18.1472512612
 20
12.0226730646
 30
0.0
 10
18.1497907551
 20
12.0178200464
 30
0.0
 10
18.1527356597
 20
12.0119936025
 30
0.0
 10
18.1549175709
 20
12.008115327
 30
0.0
 10
18.1571627226
 20
12.0042441068
 30
0.0
 10
18.1593876954
 20
12.0003577179
 30
0.0
 10
18.16077605
 20
11.9979607671
 30
0.0
 10
18.1618971867
 20
11.9959700972
 30
0.0
 10
18.162978314
 20
11.9942462306
 30
0.0
 10
18.164853172
 20
11.9913541633
 30
0.0
 10
18.1669938694
 20
11.9879924204
 30
0.0
 10
18.1691601189
 20
11.9846577337
 30
0.0
 10
18.1707101473
 20
11.982132073
 30
0.0
 10
18.1725460345
 20
11.9796914668
 30
0.0
 10
18.1748944589
 20
11.9764046013
 30
0.0
 10
18.1772677161
 20
11.9731439709
 30
0.0
 10
18.179344378
 20
11.970243527
 30
0.0
 10
18.1805185195
 20
11.9686542569
 30
0.0
 10
18.1816423665
 20
11.967320089
 30
0.0
 10
18.1830636844
 20
11.9655647797
 30
0.0
 10
18.1853327229
 20
11.9628067168
 30
0.0
 10
18.187579353
 20
11.9600263799
 30
0.0
 10
18.1898970108
 20
11.9572750412
 30
0.0
 10
18.1924686154
 20
11.9546081044
 30
0.0
 10
18.1955954092
 20
11.9512452814
 30
0.0
 10
18.1981235756
 20
11.9485639074
 30
0.0
 10
18.1993843173
 20
11.9472221099
 30
0.0
  0
SPLINE
  5
330
100
AcDbEntity
  8
02__ASM_ALL_AXES
100
AcDbSpline
 62
7
  6
BYLAYER
 70
0
 71
3
 72
23
 73
19
 74
0
 42
0.0000001
 43
0.0000001
 44
0.0000000001
 40
0.0
 40
0.0
 40
0.0
 40
0.0
 40
0.125
 40
0.25
 40
0.3125
 40
0.34375
 40
0.375
 40
0.4375
 40
0.46875
 40
0.5
 40
0.53125
 40
0.5625
 40
0.625
 40
0.65625
 40
0.6875
 40
0.75
 40
0.875
 40
1.0
 40
1.0
 40
1.0
 40
1.0
 10
18.1993843163
 20
11.9472221109
 30
0.0
 10
18.2002243484
 20
11.9464160247
 30
0.0
 10
18.2018983136
 20
11.9447860458
 30
0.0
 10
18.204021265
 20
11.942837605
 30
0.0
 10
18.2054793866
 20
11.9415083919
 30
0.0
 10
18.2063593808
 20
11.940719309
 30
0.0
 10
18.2074144457
 20
11.9398281831
 30
0.0
 10
18.2084269633
 20
11.9389579804
 30
0.0
 10
18.2094358199
 20
11.9381015403
 30
0.0
 10
18.2102459925
 20
11.9373969993
 30
0.0
 10
18.2108438752
 20
11.9369344207
 30
0.0
 10
18.211712407
 20
11.9362344097
 30
0.0
 10
18.2125773892
 20
11.935549911
 30
0.0
 10
18.213399504
 20
11.9348813049
 30
0.0
 10
18.2143978216
 20
11.9341284453
 30
0.0
 10
18.2162302996
 20
11.9327640128
 30
0.0
 10
18.2187841268
 20
11.9308874609
 30
0.0
 10
18.2207731941
 20
11.9295491392
 30
0.0
 10
18.2217744771
 20
11.9288596134
 30
0.0
  0
SPLINE
  5
331
100
AcDbEntity
  8
02__ASM_ALL_AXES
100
AcDbSpline
 62
7
  6
BYLAYER
 70
0
 71
3
 72
65
 73
61
 74
0
 42
0.0000001
 43
0.0000001
 44
0.0000000001
 40
0.0
 40
0.0
 40
0.0
 40
0.0
 40
0.0625
 40
0.09375
 40
0.125
 40
0.140625
 40
0.15625
 40
0.1640625
 40
0.16796875
 40
0.171875
 40
0.1796875
 40
0.1875
 40
0.21875
 40
0.25
 40
0.28125
 40
0.3125
 40
0.3203125
 40
0.328125
 40
0.33203125
 40
0.3359375
 40
0.34375
 40
0.359375
 40
0.375
 40
0.40625
 40
0.4375
 40
0.453125
 40
0.46875
 40
0.484375
 40
0.4921875
 40
0.49609375
 40
0.5
 40
0.50390625
 40
0.5078125
 40
0.515625
 40
0.53125
 40
0.546875
 40
0.5625
 40
0.59375
 40
0.625
 40
0.640625
 40
0.65625
 40
0.6640625
 40
0.66796875
 40
0.671875
 40
0.6796875
 40
0.6875
 40
0.71875
 40
0.75
 40
0.78125
 40
0.8125
 40
0.8203125
 40
0.828125
 40
0.83203125
 40
0.8359375
 40
0.84375
 40
0.859375
 40
0.875
 40
0.90625
 40
0.9375
 40
1.0
 40
1.0
 40
1.0
 40
1.0
 10
18.2217744773
 20
11.9288596132
 30
0.0
 10
18.2245877214
 20
11.9274247499
 30
0.0
 10
18.2288076093
 20
11.9252728532
 30
0.0
 10
18.2344340389
 20
11.9224020645
 30
0.0
 10
18.2379507399
 20
11.9206111405
 30
0.0
 10
18.2407636847
 20
11.9191708341
 30
0.0
 10
18.2425227238
 20
11.9182879011
 30
0.0
 10
18.2437521501
 20
11.9176352606
 30
0.0
 10
18.2444576538
 20
11.9173164383
 30
0.0
 10
18.2451743604
 20
11.9172014407
 30
0.0
 10
18.2460664144
 20
11.916988024
 30
0.0
 10
18.2482104959
 20
11.9165331787
 30
0.0
 10
18.251425292
 20
11.9158266257
 30
0.0
 10
18.2557124553
 20
11.9148993661
 30
0.0
 10
18.2599993737
 20
11.9139646706
 30
0.0
 10
18.2632147208
 20
11.9132748481
 30
0.0
 10
18.2653580982
 20
11.912798625
 30
0.0
 10
18.2662514403
 20
11.9126243235
 30
0.0
 10
18.266965489
 20
11.912428617
 30
0.0
 10
18.2676818232
 20
11.9124386718
 30
0.0
 10
18.2689364699
 20
11.9125518686
 30
0.0
 10
18.2707282682
 20
11.9126637002
 30
0.0
 10
18.2735954557
 20
11.912870496
 30
0.0
 10
18.2771793299
 20
11.9131195133
 30
0.0
 10
18.2807632568
 20
11.913371609
 30
0.0
 10
18.28363036
 20
11.9135734794
 30
0.0
 10
18.2857807706
 20
11.9137224538
 30
0.0
 10
18.2875725182
 20
11.9138546128
 30
0.0
 10
18.2888272537
 20
11.9139313579
 30
0.0
 10
18.2895434459
 20
11.9139998358
 30
0.0
 10
18.2900828422
 20
11.9139818283
 30
0.0
 10
18.2906136294
 20
11.9142289727
 30
0.0
 10
18.2913243485
 20
11.9144660107
 30
0.0
 10
18.292566708
 20
11.9149239182
 30
0.0
 10
18.2943422383
 20
11.9155555488
 30
0.0
 10
18.2964725635
 20
11.9163231223
 30
0.0
 10
18.2993130967
 20
11.9173433134
 30
0.0
 10
18.3028637947
 20
11.9186188114
 30
0.0
 10
18.3064142422
 20
11.9198973231
 30
0.0
 10
18.309255176
 20
11.9209126925
 30
0.0
 10
18.3110294454
 20
11.9215643913
 30
0.0
 10
18.3122740681
 20
11.9219863128
 30
0.0
 10
18.3129811596
 20
11.9222810276
 30
0.0
 10
18.3136727277
 20
11.9227776905
 30
0.0
 10
18.314542494
 20
11.923329491
 30
0.0
 10
18.3166255646
 20
11.9247106387
 30
0.0
 10
18.319752024
 20
11.926758301
 30
0.0
 10
18.3239194882
 20
11.9295031796
 30
0.0
 10
18.3280875918
 20
11.9322407361
 30
0.0
 10
18.3312126124
 20
11.9343048732
 30
0.0
 10
18.3332975216
 20
11.9356649698
 30
0.0
 10
18.3341639238
 20
11.9362552875
 30
0.0
 10
18.3348624332
 20
11.9366724753
 30
0.0
 10
18.33554124
 20
11.93729104
 30
0.0
 10
18.3367199975
 20
11.9384670925
 30
0.0
 10
18.3384087132
 20
11.9400983502
 30
0.0
 10
18.3411079889
 20
11.9427356445
 30
0.0
 10
18.344482998
 20
11.9460229171
 30
0.0
 10
18.3498824991
 20
11.9512877996
 30
0.0
 10
18.3539322405
 20
11.9552352811
 30
0.0
 10
18.3566320424
 20
11.9578671977
 30
0.0
  0
SPLINE
  5
332
100
AcDbEntity
  8
02__ASM_ALL_AXES
100
AcDbSpline
 62
7
  6
BYLAYER
 70
0
 71
3
 72
61
 73
57
 74
0
 42
0.0000001
 43
0.0000001
 44
0.0000000001
 40
0.0
 40
0.0
 40
0.0
 40
0.0
 40
0.0625
 40
0.09375
 40
0.125
 40
0.140625
 40
0.15625
 40
0.1640625
 40
0.16796875
 40
0.171875
 40
0.1796875
 40
0.1875
 40
0.21875
 40
0.25
 40
0.28125
 40
0.296875
 40
0.3125
 40
0.3203125
 40
0.328125
 40
0.33203125
 40
0.3359375
 40
0.34375
 40
0.359375
 40
0.375
 40
0.40625
 40
0.4375
 40
0.46875
 40
0.484375
 40
0.4921875
 40
0.5
 40
0.5078125
 40
0.515625
 40
0.53125
 40
0.5625
 40
0.625
 40
0.640625
 40
0.65625
 40
0.6640625
 40
0.66796875
 40
0.671875
 40
0.6796875
 40
0.6875
 40
0.71875
 40
0.75
 40
0.78125
 40
0.8125
 40
0.8203125
 40
0.828125
 40
0.83203125
 40
0.8359375
 40
0.84375
 40
0.859375
 40
0.875
 40
0.90625
 40
0.9375
 40
1.0
 40
1.0
 40
1.0
 40
1.0
 10
18.3566320414
 20
11.9578671966
 30
0.0
 10
18.3595675364
 20
11.9618264915
 30
0.0
 10
18.3639706699
 20
11.9677658927
 30
0.0
 10
18.369841951
 20
11.9756832591
 30
0.0
 10
18.3735105926
 20
11.9806354363
 30
0.0
 10
18.3764475786
 20
11.9845884613
 30
0.0
 10
18.3782784674
 20
11.9870789821
 30
0.0
 10
18.3795695638
 20
11.9887825051
 30
0.0
 10
18.38029251
 20
11.9898182826
 30
0.0
 10
18.380959625
 20
11.991088847
 30
0.0
 10
18.3818126019
 20
11.9925968019
 30
0.0
 10
18.3838440412
 20
11.9962819391
 30
0.0
 10
18.3868977834
 20
12.0017819713
 30
0.0
 10
18.3909657397
 20
12.0091308487
 30
0.0
 10
18.394356333
 20
12.0152524401
 30
0.0
 10
18.3970691462
 20
12.0201478982
 30
0.0
 10
18.3987634932
 20
12.0232133335
 30
0.0
 10
18.4001216731
 20
12.025652278
 30
0.0
 10
18.4009643604
 20
12.0272072407
 30
0.0
 10
18.4016526551
 20
12.0283810681
 30
0.0
 10
18.4022893101
 20
12.0298109684
 30
0.0
 10
18.4033794692
 20
12.0324322483
 30
0.0
 10
18.4049493425
 20
12.0361148885
 30
0.0
 10
18.4074542228
 20
12.0420416757
 30
0.0
 10
18.4105871877
 20
12.0494391199
 30
0.0
 10
18.4143481713
 20
12.0583171994
 30
0.0
 10
18.4174750857
 20
12.0657264972
 30
0.0
 10
18.4196785032
 20
12.0708896178
 30
0.0
 10
18.4209147807
 20
12.0738767965
 30
0.0
 10
18.4219062783
 20
12.0760133905
 30
0.0
 10
18.4226520272
 20
12.0785467324
 30
0.0
 10
18.4237320758
 20
12.0817861356
 30
0.0
 10
18.4255822558
 20
12.0875195258
 30
0.0
 10
18.429311463
 20
12.0989396174
 30
0.0
 10
18.4330272068
 20
12.1103821034
 30
0.0
 10
18.4362203752
 20
12.1201753098
 30
0.0
 10
18.4375435312
 20
12.1242695465
 30
0.0
 10
18.4384844138
 20
12.1271079516
 30
0.0
 10
18.4389991058
 20
12.1287730238
 30
0.0
 10
18.4394273378
 20
12.1306005334
 30
0.0
 10
18.4399921809
 20
12.1328293972
 30
0.0
 10
18.4413234751
 20
12.1382243808
 30
0.0
 10
18.4433307158
 20
12.1462974762
 30
0.0
 10
18.4460007653
 20
12.1570735423
 30
0.0
 10
18.4486739285
 20
12.1678431971
 30
0.0
 10
18.4506741633
 20
12.1759307179
 30
0.0
 10
18.4520144095
 20
12.181307269
 30
0.0
 10
18.4525628731
 20
12.183569859
 30
0.0
 10
18.453024902
 20
12.1853277791
 30
0.0
 10
18.4534018765
 20
12.1872764183
 30
0.0
 10
18.4540220637
 20
12.1907751494
 30
0.0
 10
18.4549286641
 20
12.1957271031
 30
0.0
 10
18.4563677019
 20
12.203676067
 30
0.0
 10
18.4581704462
 20
12.2136034211
 30
0.0
 10
18.4610526212
 20
12.2294921565
 30
0.0
 10
18.463214751
 20
12.24140759
 30
0.0
 10
18.4646560601
 20
12.2493514609
 30
0.0
  0
LINE
  5
333
100
AcDbEntity
  8
02__ASM_ALL_AXES
100
AcDbLine
 62
7
  6
BYLAYER
 10
18.4648925135
 20
12.2509265546
 11
18.4655980722
 21
12.255718412
  0
SPLINE
  5
334
100
AcDbEntity
  8
02__ASM_ALL_AXES
100
AcDbSpline
 62
7
  6
BYLAYER
 70
0
 71
3
 72
27
 73
23
 74
0
 42
0.0000001
 43
0.0000001
 44
0.0000000001
 40
0.0
 40
0.0
 40
0.0
 40
0.0
 40
0.0625
 40
0.125
 40
0.15625
 40
0.171875
 40
0.1875
 40
0.21875
 40
0.25
 40
0.3125
 40
0.375
 40
0.5
 40
0.625
 40
0.6875
 40
0.75
 40
0.78125
 40
0.8125
 40
0.828125
 40
0.84375
 40
0.875
 40
0.9375
 40
1.0
 40
1.0
 40
1.0
 40
1.0
 10
18.4655980722
 20
12.255718412
 30
0.0
 10
18.4658100252
 20
12.2572357091
 30
0.0
 10
18.4662336967
 20
12.2602659656
 30
0.0
 10
18.4667644587
 20
12.2640754752
 30
0.0
 10
18.4671338374
 20
12.2667022783
 30
0.0
 10
18.467348253
 20
12.2682651224
 30
0.0
 10
18.4675751565
 20
12.2700607584
 30
0.0
 10
18.4678548317
 20
12.2722253381
 30
0.0
 10
18.4683026432
 20
12.2757348596
 30
0.0
 10
18.4688757409
 20
12.2800951674
 30
0.0
 10
18.4697067014
 20
12.2871494745
 30
0.0
 10
18.4707636572
 20
12.2959525013
 30
0.0
 10
18.4716639601
 20
12.3048718139
 30
0.0
 10
18.4723986548
 20
12.3119927144
 30
0.0
 10
18.4728029451
 20
12.3164847522
 30
0.0
 10
18.4731380022
 20
12.3200583726
 30
0.0
 10
18.4733457976
 20
12.3223211726
 30
0.0
 10
18.4735130043
 20
12.3240661257
 30
0.0
 10
18.4736776215
 20
12.3260487965
 30
0.0
 10
18.4739645423
 20
12.32962894
 30
0.0
 10
18.4743750393
 20
12.3346852888
 30
0.0
 10
18.474703251
 20
12.3387480873
 30
0.0
 10
18.47486738
 20
12.3407772716
 30
0.0
  0
SPLINE
  5
335
100
AcDbEntity
  8
02__ASM_ALL_AXES
100
AcDbSpline
 62
7
  6
BYLAYER
 70
0
 71
3
 72
50
 73
46
 74
0
 42
0.0000001
 43
0.0000001
 44
0.0000000001
 40
0.0
 40
0.0
 40
0.0
 40
0.0
 40
0.0625
 40
0.125
 40
0.140625
 40
0.15625
 40
0.1640625
 40
0.171875
 40
0.1875
 40
0.21875
 40
0.25
 40
0.28125
 40
0.3125
 40
0.328125
 40
0.3359375
 40
0.34375
 40
0.359375
 40
0.375
 40
0.4375
 40
0.46875
 40
0.484375
 40
0.4921875
 40
0.5
 40
0.5078125
 40
0.515625
 40
0.53125
 40
0.5625
 40
0.625
 40
0.640625
 40
0.65625
 40
0.6640625
 40
0.671875
 40
0.6875
 40
0.71875
 40
0.75
 40
0.78125
 40
0.8125
 40
0.828125
 40
0.8359375
 40
0.84375
 40
0.859375
 40
0.875
 40
0.90625
 40
0.9375
 40
1.0
 40
1.0
 40
1.0
 40
1.0
 10
18.4748673801
 20
12.3407772723
 30
0.0
 10
18.4752736278
 20
12.34899619
 30
0.0
 10
18.4760885734
 20
12.3654336257
 30
0.0
 10
18.4769943619
 20
12.383927539
 30
0.0
 10
18.4776142994
 20
12.3962541924
 30
0.0
 10
18.4778488718
 20
12.4013941688
 30
0.0
 10
18.4780918855
 20
12.4054971221
 30
0.0
 10
18.4781324642
 20
12.4096330901
 30
0.0
 10
18.4781093625
 20
12.4168863689
 30
0.0
 10
18.478125894
 20
12.4272402287
 30
0.0
 10
18.4781230877
 20
12.4396680516
 30
0.0
 10
18.4781316036
 20
12.4520958572
 30
0.0
 10
18.4781198295
 20
12.4624497601
 30
0.0
 10
18.4781462627
 20
12.4697029635
 30
0.0
 10
18.4781075855
 20
12.4738390522
 30
0.0
 10
18.4778664518
 20
12.4779427365
 30
0.0
 10
18.4776342811
 20
12.4830834378
 30
0.0
 10
18.4770196753
 20
12.4954118134
 30
0.0
 10
18.4763259554
 20
12.5097999445
 30
0.0
 10
18.4756124967
 20
12.5241811411
 30
0.0
 10
18.4752713834
 20
12.5313791254
 30
0.0
 10
18.4750525109
 20
12.5354805882
 30
0.0
 10
18.4749557467
 20
12.5385895882
 30
0.0
 10
18.4746013971
 20
12.541572812
 30
0.0
 10
18.474218784
 20
12.545594322
 30
0.0
 10
18.4735073034
 20
12.5526114598
 30
0.0
 10
18.472115506
 20
12.5666614307
 30
0.0
 10
18.4707043563
 20
12.5806992482
 30
0.0
 10
18.4695140087
 20
12.5927464952
 30
0.0
 10
18.4689952303
 20
12.5977472489
 30
0.0
 10
18.4686330073
 20
12.6017918066
 30
0.0
 10
18.4680778257
 20
12.6056756916
 30
0.0
 10
18.4670165573
 20
12.6123977816
 30
0.0
 10
18.4655476555
 20
12.6220401843
 30
0.0
 10
18.4637634627
 20
12.633592629
 30
0.0
 10
18.4619897991
 20
12.6451557606
 30
0.0
 10
18.4604945744
 20
12.6547714463
 30
0.0
 10
18.4594793712
 20
12.6615402909
 30
0.0
 10
18.4588504853
 20
12.6653493686
 30
0.0
 10
18.4580379951
 20
12.6689369217
 30
0.0
 10
18.4570852484
 20
12.6734972127
 30
0.0
 10
18.4555257204
 20
12.6807512892
 30
0.0
 10
18.4535883452
 20
12.6898334051
 30
0.0
 10
18.4504817886
 20
12.7043566387
 30
0.0
 10
18.4481533913
 20
12.7152508981
 30
0.0
 10
18.4466007887
 20
12.7225133302
 30
0.0
  0
LINE
  5
336
100
AcDbEntity
  8
02__ASM_ALL_AXES
100
AcDbLine
 62
7
  6
BYLAYER
 10
18.4466007897
 20
12.7225133261
 11
18.4445365633
 21
12.7307083659
  0
LINE
  5
337
100
AcDbEntity
  8
02__ASM_ALL_AXES
100
AcDbLine
 62
7
  6
BYLAYER
 10
18.4445365633
 20
12.7307083659
 11
18.4421552227
 21
12.7397679011
  0
SPLINE
  5
338
100
AcDbEntity
  8
02__ASM_ALL_AXES
100
AcDbSpline
 62
7
  6
BYLAYER
 70
0
 71
3
 72
32
 73
28
 74
0
 42
0.0000001
 43
0.0000001
 44
0.0000000001
 40
0.0
 40
0.0
 40
0.0
 40
0.0
 40
0.0625
 40
0.125
 40
0.15625
 40
0.1875
 40
0.21875
 40
0.25
 40
0.28125
 40
0.3125
 40
0.328125
 40
0.34375
 40
0.375
 40
0.4375
 40
0.46875
 40
0.5
 40
0.53125
 40
0.5625
 40
0.625
 40
0.65625
 40
0.6875
 40
0.75
 40
0.8125
 40
0.84375
 40
0.875
 40
0.9375
 40
1.0
 40
1.0
 40
1.0
 40
1.0
 10
18.4409679738
 20
12.7441379567
 30
0.0
 10
18.4402747321
 20
12.746544561
 30
0.0
 10
18.4388933887
 20
12.7513530536
 30
0.0
 10
18.4371410092
 20
12.7573872484
 30
0.0
 10
18.4357930762
 20
12.7621650885
 30
0.0
 10
18.4346356348
 20
12.7658828682
 30
0.0
 10
18.4334369973
 20
12.7696392224
 30
0.0
 10
18.4322495473
 20
12.7733825866
 30
0.0
 10
18.4310585433
 20
12.7771393364
 30
0.0
 10
18.4300685635
 20
12.7802361676
 30
0.0
 10
18.4292723003
 20
12.7827880446
 30
0.0
 10
18.4284911356
 20
12.7850693083
 30
0.0
 10
18.4271296085
 20
12.7889365352
 30
0.0
 10
18.4255799531
 20
12.7934044128
 30
0.0
 10
18.4240048725
 20
12.7978705608
 30
0.0
 10
18.4228934622
 20
12.801177171
 30
0.0
 10
18.4215151639
 20
12.8046566491
 30
0.0
 10
18.4197721916
 20
12.809239179
 30
0.0
 10
18.4179944426
 20
12.8138166186
 30
0.0
 10
18.4162499545
 20
12.8184519097
 30
0.0
 10
18.4144187917
 20
12.8228625823
 30
0.0
 10
18.4120990348
 20
12.8282888152
 30
0.0
 10
18.4097977391
 20
12.833777775
 30
0.0
 10
18.4079370385
 20
12.8380880847
 30
0.0
 10
18.4060131893
 20
12.8421271092
 30
0.0
 10
18.403630189
 20
12.8472695903
 30
0.0
 10
18.4017171416
 20
12.8513550188
 30
0.0
 10
18.4007614488
 20
12.8534013026
 30
0.0
  0
SPLINE
  5
339
100
AcDbEntity
  8
02__ASM_ALL_AXES
100
AcDbSpline
 62
7
  6
BYLAYER
 70
0
 71
3
 72
21
 73
17
 74
0
 42
0.0000001
 43
0.0000001
 44
0.0000000001
 40
0.0
 40
0.0
 40
0.0
 40
0.0
 40
0.0625
 40
0.125
 40
0.15625
 40
0.1875
 40
0.21875
 40
0.25
 40
0.375
 40
0.5
 40
0.625
 40
0.75
 40
0.8125
 40
0.84375
 40
0.875
 40
1.0
 40
1.0
 40
1.0
 40
1.0
 10
17.0868046191
 20
13.7834289345
 30
0.0
 10
17.0866104182
 20
13.7827833506
 30
0.0
 10
17.0862237452
 20
13.7815004688
 30
0.0
 10
17.0857317595
 20
13.7798554359
 30
0.0
 10
17.0853563244
 20
13.7786264142
 30
0.0
 10
17.0850254742
 20
13.7774684923
 30
0.0
 10
17.084681117
 20
13.7762444651
 30
0.0
 10
17.0839974809
 20
13.773830339
 30
0.0
 10
17.0829971533
 20
13.7701960149
 30
0.0
 10
17.0817194937
 20
13.7653577547
 30
0.0
 10
17.0805643393
 20
13.7605281122
 30
0.0
 10
17.0796492189
 20
13.7564890712
 30
0.0
 10
17.0790318089
 20
13.753697885
 30
0.0
 10
17.0786754628
 20
13.7520480649
 30
0.0
 10
17.0781342988
 20
13.7492735389
 30
0.0
 10
17.0776850592
 20
13.7470395058
 30
0.0
 10
17.0773251138
 20
13.7452272963
 30
0.0
  0
SPLINE
  5
33A
100
AcDbEntity
  8
02__ASM_ALL_AXES
100
AcDbSpline
 62
7
  6
BYLAYER
 70
0
 71
3
 72
68
 73
64
 74
0
 42
0.0000001
 43
0.0000001
 44
0.0000000001
 40
0.0
 40
0.0
 40
0.0
 40
0.0
 40
0.0625
 40
0.09375
 40
0.125
 40
0.140625
 40
0.15625
 40
0.1640625
 40
0.16796875
 40
0.171875
 40
0.1796875
 40
0.1875
 40
0.21875
 40
0.25
 40
0.28125
 40
0.296875
 40
0.3125
 40
0.3203125
 40
0.328125
 40
0.33203125
 40
0.3359375
 40
0.34375
 40
0.359375
 40
0.375
 40
0.40625
 40
0.4375
 40
0.453125
 40
0.46875
 40
0.484375
 40
0.4921875
 40
0.49609375
 40
0.5
 40
0.50390625
 40
0.5078125
 40
0.515625
 40
0.53125
 40
0.546875
 40
0.5625
 40
0.59375
 40
0.625
 40
0.640625
 40
0.65625
 40
0.6640625
 40
0.66796875
 40
0.671875
 40
0.6796875
 40
0.6875
 40
0.703125
 40
0.71875
 40
0.75
 40
0.78125
 40
0.796875
 40
0.8125
 40
0.8203125
 40
0.828125
 40
0.83203125
 40
0.8359375
 40
0.84375
 40
0.859375
 40
0.875
 40
0.90625
 40
0.9375
 40
1.0
 40
1.0
 40
1.0
 40
1.0
 10
17.077325114
 20
13.7452272976
 30
0.0
 10
17.0766805003
 20
13.739343656
 30
0.0
 10
17.0757140376
 20
13.7305182804
 30
0.0
 10
17.0744235891
 20
13.7187507656
 30
0.0
 10
17.0736208747
 20
13.7113967926
 30
0.0
 10
17.072970003
 20
13.7055119641
 30
0.0
 10
17.0725830506
 20
13.7018377097
 30
0.0
 10
17.072272418
 20
13.6992581893
 30
0.0
 10
17.0721571311
 20
13.6977959783
 30
0.0
 10
17.0722761852
 20
13.696378214
 30
0.0
 10
17.0723449047
 20
13.6945908166
 30
0.0
 10
17.0725757515
 20
13.690313566
 30
0.0
 10
17.0728943977
 20
13.6838924467
 30
0.0
 10
17.0733347476
 20
13.6753339126
 30
0.0
 10
17.0736991879
 20
13.6682012614
 30
0.0
 10
17.0739890389
 20
13.6624949561
 30
0.0
 10
17.0741757077
 20
13.658929246
 30
0.0
 10
17.0743122395
 20
13.6560749702
 30
0.0
 10
17.0744268241
 20
13.6542949516
 30
0.0
 10
17.0744514872
 20
13.6528619947
 30
0.0
 10
17.0747207666
 20
13.6514616828
 30
0.0
 10
17.0753056401
 20
13.6490263016
 30
0.0
 10
17.0760818864
 20
13.6455392749
 30
0.0
 10
17.0773570039
 20
13.6399644446
 30
0.0
 10
17.078939624
 20
13.6329944557
 30
0.0
 10
17.080525947
 20
13.6260247556
 30
0.0
 10
17.0817951399
 20
13.6204494633
 30
0.0
 10
17.0827444095
 20
13.6162664176
 30
0.0
 10
17.0835441616
 20
13.6127856061
 30
0.0
 10
17.0840868789
 20
13.6103391019
 30
0.0
 10
17.0844237248
 20
13.6089566149
 30
0.0
 10
17.0846010823
 20
13.6078760421
 30
0.0
 10
17.0850661868
 20
13.6069625421
 30
0.0
 10
17.0855859569
 20
13.6056862652
 30
0.0
 10
17.0865423177
 20
13.6034799326
 30
0.0
 10
17.0878841056
 20
13.6003138358
 30
0.0
 10
17.0895046843
 20
13.596520585
 30
0.0
 10
17.0916619545
 20
13.5914608475
 30
0.0
 10
17.0943587205
 20
13.5851365353
 30
0.0
 10
17.09705915
 20
13.5788133714
 30
0.0
 10
17.0992105585
 20
13.5737517967
 30
0.0
 10
17.1005756948
 20
13.5705953474
 30
0.0
 10
17.1014901823
 20
13.5683717254
 30
0.0
 10
17.1020770655
 20
13.5671231581
 30
0.0
 10
17.102906248
 20
13.5659577467
 30
0.0
 10
17.1038597631
 20
13.56447251
 30
0.0
 10
17.1054317518
 20
13.5621120435
 30
0.0
 10
17.1073808562
 20
13.5591560081
 30
0.0
 10
17.1105083352
 20
13.5544294215
 30
0.0
 10
17.1144143708
 20
13.5485199727
 30
0.0
 10
17.1183225192
 20
13.5426115485
 30
0.0
 10
17.1214466176
 20
13.5378833225
 30
0.0
 10
17.1234041734
 20
13.5349313856
 30
0.0
 10
17.1249588369
 20
13.5325625173
 30
0.0
 10
17.1259564574
 20
13.5310986693
 30
0.0
 10
17.126695105
 20
13.5298893535
 30
0.0
 10
17.1276507834
 20
13.5288196315
 30
0.0
 10
17.1294240406
 20
13.5270124652
 30
0.0
 10
17.1319046623
 20
13.5243969651
 30
0.0
 10
17.1359030546
 20
13.5202310733
 30
0.0
 10
17.1408909748
 20
13.5150172315
 30
0.0
 10
17.1488773006
 20
13.5066787209
 30
0.0
 10
17.154865773
 20
13.5004240198
 30
0.0
 10
17.1588583705
 20
13.4962544008
 30
0.0
  0
SPLINE
  5
33B
100
AcDbEntity
  8
02__ASM_ALL_AXES
100
AcDbSpline
 62
7
  6
BYLAYER
 70
0
 71
3
 72
22
 73
18
 74
0
 42
0.0000001
 43
0.0000001
 44
0.0000000001
 40
0.0
 40
0.0
 40
0.0
 40
0.0
 40
0.125
 40
0.1875
 40
0.25
 40
0.3125
 40
0.375
 40
0.4375
 40
0.5
 40
0.5625
 40
0.625
 40
0.6875
 40
0.75
 40
0.8125
 40
0.84375
 40
0.875
 40
1.0
 40
1.0
 40
1.0
 40
1.0
 10
17.1588583688
 20
13.4962544023
 30
0.0
 10
17.1614743771
 20
13.4940697679
 30
0.0
 10
17.1653805675
 20
13.4907779159
 30
0.0
 10
17.1706601093
 20
13.4864483817
 30
0.0
 10
17.174831199
 20
13.4833793954
 30
0.0
 10
17.1789002172
 20
13.4802222888
 30
0.0
 10
17.1831660882
 20
13.4772394989
 30
0.0
 10
17.1875016379
 20
13.474320259
 30
0.0
 10
17.1917391292
 20
13.4713088509
 30
0.0
 10
17.1962991756
 20
13.4686025655
 30
0.0
 10
17.200761487
 20
13.4658030522
 30
0.0
 10
17.2052921833
 20
13.463071328
 30
0.0
 10
17.2099986461
 20
13.4605148819
 30
0.0
 10
17.2138637744
 20
13.4583324363
 30
0.0
 10
17.2170046115
 20
13.4566238178
 30
0.0
 10
17.2219289124
 20
13.4542132848
 30
0.0
 10
17.225977016
 20
13.4521648211
 30
0.0
 10
17.2292332526
 20
13.4505387497
 30
0.0
  0
SPLINE
  5
33C
100
AcDbEntity
  8
02__ASM_ALL_AXES
100
AcDbSpline
 62
7
  6
BYLAYER
 70
0
 71
3
 72
49
 73
45
 74
0
 42
0.0000001
 43
0.0000001
 44
0.0000000001
 40
0.0
 40
0.0
 40
0.0
 40
0.0
 40
0.0625
 40
0.125
 40
0.140625
 40
0.15625
 40
0.1640625
 40
0.171875
 40
0.1875
 40
0.21875
 40
0.25
 40
0.28125
 40
0.3125
 40
0.328125
 40
0.3359375
 40
0.34375
 40
0.359375
 40
0.375
 40
0.4375
 40
0.46875
 40
0.484375
 40
0.4921875
 40
0.5
 40
0.5078125
 40
0.515625
 40
0.53125
 40
0.5625
 40
0.625
 40
0.640625
 40
0.65625
 40
0.6640625
 40
0.671875
 40
0.6875
 40
0.71875
 40
0.75
 40
0.78125
 40
0.8125
 40
0.828125
 40
0.8359375
 40
0.84375
 40
0.859375
 40
0.875
 40
0.9375
 40
1.0
 40
1.0
 40
1.0
 40
1.0
 10
17.2292332526
 20
13.4505387498
 30
0.0
 10
17.2332535414
 20
13.4488827775
 30
0.0
 10
17.2412924957
 20
13.4455686749
 30
0.0
 10
17.2503436235
 20
13.4418500204
 30
0.0
 10
17.2563670569
 20
13.4393567557
 30
0.0
 10
17.2588925449
 20
13.4383388007
 30
0.0
 10
17.2608762626
 20
13.4374756801
 30
0.0
 10
17.2629940922
 20
13.4367908618
 30
0.0
 10
17.2667626597
 20
13.4356753227
 30
0.0
 10
17.2721133901
 20
13.4340380816
 30
0.0
 10
17.2785498163
 20
13.4320932687
 30
0.0
 10
17.2849767435
 20
13.4301387321
 30
0.0
 10
17.2903512215
 20
13.4285258002
 30
0.0
 10
17.2940782307
 20
13.42736772
 30
0.0
 10
17.2962625535
 20
13.4267509674
 30
0.0
 10
17.2986524471
 20
13.4263036394
 30
0.0
 10
17.3015695391
 20
13.4256865228
 30
0.0
 10
17.3086284868
 20
13.4242535526
 30
0.0
 10
17.3168440103
 20
13.4225614031
 30
0.0
 10
17.3250685944
 20
13.4208882104
 30
0.0
 10
17.3291792449
 20
13.4200353894
 30
0.0
 10
17.3315297077
 20
13.4195731688
 30
0.0
 10
17.3332884648
 20
13.4191558217
 30
0.0
 10
17.3350628221
 20
13.4190086485
 30
0.0
 10
17.3374231804
 20
13.4187181741
 30
0.0
 10
17.3415564464
 20
13.4182537922
 30
0.0
 10
17.3498199311
 20
13.417292427
 30
0.0
 10
17.358091144
 20
13.4163508764
 30
0.0
 10
17.3651663711
 20
13.41552466
 30
0.0
 10
17.3681346756
 20
13.4152029227
 30
0.0
 10
17.370462054
 20
13.4148934032
 30
0.0
 10
17.3729622586
 20
13.4147743866
 30
0.0
 10
17.3774179382
 20
13.4146546713
 30
0.0
 10
17.3837411153
 20
13.4144370146
 30
0.0
 10
17.3913473174
 20
13.414197242
 30
0.0
 10
17.3989472885
 20
13.4139464236
 30
0.0
 10
17.4052860429
 20
13.4137563813
 30
0.0
 10
17.4097144623
 20
13.4135883408
 30
0.0
 10
17.4122582833
 20
13.4135466444
 30
0.0
 10
17.4148520944
 20
13.4137094486
 30
0.0
 10
17.4180772711
 20
13.4138430532
 30
0.0
 10
17.4258317618
 20
13.414221249
 30
0.0
 10
17.4374575423
 20
13.414764179
 30
0.0
 10
17.4477939894
 20
13.4152566836
 30
0.0
 10
17.4529619105
 20
13.4155016984
 30
0.0
  0
SPLINE
  5
33D
100
AcDbEntity
  8
02__ASM_ALL_AXES
100
AcDbSpline
 62
7
  6
BYLAYER
 70
0
 71
3
 72
53
 73
49
 74
0
 42
0.0000001
 43
0.0000001
 44
0.0000000001
 40
0.0
 40
0.0
 40
0.0
 40
0.0
 40
0.0625
 40
0.09375
 40
0.125
 40
0.140625
 40
0.15625
 40
0.1640625
 40
0.171875
 40
0.1875
 40
0.21875
 40
0.25
 40
0.28125
 40
0.3125
 40
0.328125
 40
0.3359375
 40
0.34375
 40
0.359375
 40
0.375
 40
0.40625
 40
0.4375
 40
0.46875
 40
0.484375
 40
0.4921875
 40
0.5
 40
0.5078125
 40
0.515625
 40
0.53125
 40
0.5625
 40
0.59375
 40
0.625
 40
0.640625
 40
0.65625
 40
0.6640625
 40
0.671875
 40
0.6875
 40
0.71875
 40
0.75
 40
0.78125
 40
0.8125
 40
0.828125
 40
0.8359375
 40
0.84375
 40
0.859375
 40
0.875
 40
0.90625
 40
0.9375
 40
1.0
 40
1.0
 40
1.0
 40
1.0
 10
17.4529619039
 20
13.4155016978
 30
0.0
 10
17.4582280586
 20
13.4161551056
 30
0.0
 10
17.4661276025
 20
13.4171358381
 30
0.0
 10
17.4766590803
 20
13.4184409987
 30
0.0
 10
17.4832438528
 20
13.4192618961
 30
0.0
 10
17.4885057454
 20
13.4199068218
 30
0.0
 10
17.4918079422
 20
13.4203367951
 30
0.0
 10
17.4944187477
 20
13.4206191743
 30
0.0
 10
17.4971425499
 20
13.4211264357
 30
0.0
 10
17.5019616804
 20
13.4221186662
 30
0.0
 10
17.5088188835
 20
13.4234811965
 30
0.0
 10
17.517058472
 20
13.4251410437
 30
0.0
 10
17.5252979121
 20
13.4267895543
 30
0.0
 10
17.5321554864
 20
13.4281804262
 30
0.0
 10
17.5369739674
 20
13.4291230589
 30
0.0
 10
17.5396988088
 20
13.4297096768
 30
0.0
 10
17.5423159622
 20
13.4304768701
 30
0.0
 10
17.5456242806
 20
13.4313740469
 30
0.0
 10
17.5508969558
 20
13.4328439934
 30
0.0
 10
17.5574950494
 20
13.4346702088
 30
0.0
 10
17.5654089149
 20
13.4368638169
 30
0.0
 10
17.5720069596
 20
13.438699615
 30
0.0
 10
17.5766206446
 20
13.4399673716
 30
0.0
 10
17.5792645683
 20
13.4407191271
 30
0.0
 10
17.5812263275
 20
13.4412059176
 30
0.0
 10
17.5832690548
 20
13.4419871512
 30
0.0
 10
17.5859644456
 20
13.4429260939
 30
0.0
 10
17.5906945706
 20
13.4446170654
 30
0.0
 10
17.5974447461
 20
13.4470079708
 30
0.0
 10
17.6055491063
 20
13.4498866376
 30
0.0
 10
17.6122984356
 20
13.4522866165
 30
0.0
 10
17.6177061543
 20
13.4541991938
 30
0.0
 10
17.6210674924
 20
13.4554125242
 30
0.0
 10
17.6237988657
 20
13.4563419129
 30
0.0
 10
17.6263758167
 20
13.4574220283
 30
0.0
 10
17.6308137479
 20
13.4593823165
 30
0.0
 10
17.6371910611
 20
13.4621456807
 30
0.0
 10
17.6448282228
 20
13.4654793489
 30
0.0
 10
17.652467983
 20
13.4688017684
 30
0.0
 10
17.6588387998
 20
13.4715932545
 30
0.0
 10
17.6632880997
 20
13.4735043294
 30
0.0
 10
17.6658468608
 20
13.4746631861
 30
0.0
 10
17.6684671038
 20
13.4760736311
 30
0.0
 10
17.6717213562
 20
13.4777505438
 30
0.0
 10
17.6769399247
 20
13.4804817461
 30
0.0
 10
17.6834591054
 20
13.483879258
 30
0.0
 10
17.693892057
 20
13.4893245352
 30
0.0
 10
17.7017162616
 20
13.49340641
 30
0.0
 10
17.7069325112
 20
13.4961281228
 30
0.0
  0
LINE
  5
33E
100
AcDbEntity
  8
02__ASM_ALL_AXES
100
AcDbLine
 62
7
  6
BYLAYER
 10
17.7069325116
 20
13.4961281231
 11
17.710918092
 21
13.4984127159
  0
SPLINE
  5
33F
100
AcDbEntity
  8
02__ASM_ALL_AXES
100
AcDbSpline
 62
7
  6
BYLAYER
 70
0
 71
3
 72
34
 73
30
 74
0
 42
0.0000001
 43
0.0000001
 44
0.0000000001
 40
0.0
 40
0.0
 40
0.0
 40
0.0
 40
0.125
 40
0.1875
 40
0.25
 40
0.28125
 40
0.3125
 40
0.328125
 40
0.34375
 40
0.375
 40
0.4375
 40
0.46875
 40
0.484375
 40
0.5
 40
0.515625
 40
0.53125
 40
0.5625
 40
0.625
 40
0.65625
 40
0.671875
 40
0.6875
 40
0.71875
 40
0.75
 40
0.78125
 40
0.8125
 40
0.84375
 40
0.875
 40
0.9375
 40
1.0
 40
1.0
 40
1.0
 40
1.0
 10
17.7109180918
 20
13.4984127158
 30
0.0
 10
17.7140986111
 20
13.5002994291
 30
0.0
 10
17.7188769329
 20
13.5031200824
 30
0.0
 10
17.7252178574
 20
13.5069186199
 30
0.0
 10
17.7291192661
 20
13.509385377
 30
0.0
 10
17.7322465109
 20
13.5113323268
 30
0.0
 10
17.734216579
 20
13.5125689747
 30
0.0
 10
17.7357538076
 20
13.5135173766
 30
0.0
 10
17.7374339078
 20
13.5146136009
 30
0.0
 10
17.7404417014
 20
13.5166011646
 30
0.0
 10
17.7438439405
 20
13.5188404258
 30
0.0
 10
17.7468457845
 20
13.5208152387
 30
0.0
 10
17.748536084
 20
13.5219333216
 30
0.0
 10
17.7498718185
 20
13.5227986116
 30
0.0
 10
17.7509480333
 20
13.523562181
 30
0.0
 10
17.7524736558
 20
13.524615916
 30
0.0
 10
17.755099786
 20
13.5264417279
 30
0.0
 10
17.7581287888
 20
13.5285464092
 30
0.0
 10
17.7607501335
 20
13.5303588772
 30
0.0
 10
17.7622839596
 20
13.5314354877
 30
0.0
 10
17.763950624
 20
13.5326650295
 30
0.0
 10
17.7659881637
 20
13.5341494277
 30
0.0
 10
17.7684537495
 20
13.5359534478
 30
0.0
 10
17.7709104483
 20
13.5377505456
 30
0.0
 10
17.7733821568
 20
13.5395525903
 30
0.0
 10
17.7758027135
 20
13.5413417696
 30
0.0
 10
17.778789241
 20
13.5436684769
 30
0.0
 10
17.7826055996
 20
13.5465971927
 30
0.0
 10
17.7856333306
 20
13.548933969
 30
0.0
 10
17.7871503655
 20
13.5501031317
 30
0.0
  0
SPLINE
  5
340
100
AcDbEntity
  8
02__ASM_ALL_AXES
100
AcDbSpline
 62
7
  6
BYLAYER
 70
0
 71
3
 72
50
 73
46
 74
0
 42
0.0000001
 43
0.0000001
 44
0.0000000001
 40
0.0
 40
0.0
 40
0.0
 40
0.0
 40
0.0625
 40
0.125
 40
0.140625
 40
0.15625
 40
0.1640625
 40
0.171875
 40
0.1875
 40
0.21875
 40
0.25
 40
0.28125
 40
0.3125
 40
0.328125
 40
0.3359375
 40
0.34375
 40
0.359375
 40
0.375
 40
0.4375
 40
0.46875
 40
0.484375
 40
0.4921875
 40
0.5
 40
0.5078125
 40
0.515625
 40
0.53125
 40
0.5625
 40
0.625
 40
0.640625
 40
0.65625
 40
0.6640625
 40
0.671875
 40
0.6875
 40
0.71875
 40
0.75
 40
0.78125
 40
0.8125
 40
0.828125
 40
0.8359375
 40
0.84375
 40
0.859375
 40
0.875
 40
0.90625
 40
0.9375
 40
1.0
 40
1.0
 40
1.0
 40
1.0
 10
17.787150367
 20
13.5501031328
 30
0.0
 10
17.7912739125
 20
13.5536091029
 30
0.0
 10
17.7995221997
 20
13.5606188012
 30
0.0
 10
17.8087961403
 20
13.5685148004
 30
0.0
 10
17.8149866169
 20
13.5737640873
 30
0.0
 10
17.8175543947
 20
13.5759730088
 30
0.0
 10
17.8196356419
 20
13.5776894925
 30
0.0
 10
17.8216180594
 20
13.5795912155
 30
0.0
 10
17.8250413089
 20
13.583005317
 30
0.0
 10
17.8299561163
 20
13.5878375436
 30
0.0
 10
17.8358416201
 20
13.5936557413
 30
0.0
 10
17.8417370627
 20
13.599467934
 30
0.0
 10
17.846627023
 20
13.6043151731
 30
0.0
 10
17.850093755
 20
13.6077030028
 30
0.0
 10
17.8520066004
 20
13.6096467608
 30
0.0
 10
17.8536628563
 20
13.6116200241
 30
0.0
 10
17.8558209172
 20
13.6140764869
 30
0.0
 10
17.8609277173
 20
13.619980598
 30
0.0
 10
17.8669131066
 20
13.6268628081
 30
0.0
 10
17.8728796061
 20
13.6337552516
 30
0.0
 10
17.8758747171
 20
13.6371896749
 30
0.0
 10
17.877568574
 20
13.6391709665
 30
0.0
 10
17.878888483
 20
13.6406040143
 30
0.0
 10
17.8800191443
 20
13.6422393634
 30
0.0
 10
17.8815927127
 20
13.6443492656
 30
0.0
 10
17.8843156138
 20
13.6480744536
 30
0.0
 10
17.8897849346
 20
13.6555009773
 30
0.0
 10
17.8952365189
 20
13.6629391787
 30
0.0
 10
17.8999305131
 20
13.6693067935
 30
0.0
 10
17.9018594439
 20
13.6719677162
 30
0.0
 10
17.9034650281
 20
13.6740786534
 30
0.0
 10
17.904842374
 20
13.6762545943
 30
0.0
 10
17.90714662
 20
13.6800927012
 30
0.0
 10
17.9104942731
 20
13.6855598576
 30
0.0
 10
17.9144858017
 20
13.6921274895
 30
0.0
 10
17.9184905535
 20
13.6986923101
 30
0.0
 10
17.9218051484
 20
13.7041664949
 30
0.0
 10
17.9241672462
 20
13.7079923022
 30
0.0
 10
17.9254520292
 20
13.7101879224
 30
0.0
 10
17.9264921404
 20
13.7124190853
 30
0.0
 10
17.9278760547
 20
13.7151958691
 30
0.0
 10
17.9300434991
 20
13.7196455244
 30
0.0
 10
17.9327688422
 20
13.7252052638
 30
0.0
 10
17.9371203875
 20
13.7341021547
 30
0.0
 10
17.9403860724
 20
13.7407745287
 30
0.0
 10
17.9425627454
 20
13.7452228434
 30
0.0
  0
SPLINE
  5
341
100
AcDbEntity
  8
02__ASM_ALL_AXES
100
AcDbSpline
 62
7
  6
BYLAYER
 70
0
 71
3
 72
21
 73
17
 74
0
 42
0.0000001
 43
0.0000001
 44
0.0000000001
 40
0.0
 40
0.0
 40
0.0
 40
0.0
 40
0.0625
 40
0.125
 40
0.15625
 40
0.1875
 40
0.21875
 40
0.25
 40
0.375
 40
0.5
 40
0.625
 40
0.75
 40
0.8125
 40
0.84375
 40
0.875
 40
1.0
 40
1.0
 40
1.0
 40
1.0
 10
17.9425627434
 20
13.7452228386
 30
0.0
 10
17.9428344541
 20
13.7458654353
 30
0.0
 10
17.9433751269
 20
13.7471423137
 30
0.0
 10
17.9440647107
 20
13.7487799863
 30
0.0
 10
17.9445875178
 20
13.7500028178
 30
0.0
 10
17.9450579574
 20
13.7511569163
 30
0.0
 10
17.9455500481
 20
13.7523773744
 30
0.0
 10
17.9465249109
 20
13.754784069
 30
0.0
 10
17.9479645999
 20
13.7584097376
 30
0.0
 10
17.9498289261
 20
13.7632412312
 30
0.0
 10
17.9515735991
 20
13.7680746484
 30
0.0
 10
17.9529834208
 20
13.7721214196
 30
0.0
 10
17.9539431224
 20
13.7749190711
 30
0.0
 10
17.9545021644
 20
13.7765737729
 30
0.0
 10
17.9553865927
 20
13.7793632287
 30
0.0
 10
17.9561116721
 20
13.7816077224
 30
0.0
 10
17.9566955578
 20
13.7834289342
 30
0.0
  0
SPLINE
  5
342
100
AcDbEntity
  8
02__ASM_ALL_AXES
100
AcDbSpline
 62
7
  6
BYLAYER
 70
0
 71
3
 72
62
 73
58
 74
0
 42
0.0000001
 43
0.0000001
 44
0.0000000001
 40
0.0
 40
0.0
 40
0.0
 40
0.0
 40
0.0625
 40
0.09375
 40
0.125
 40
0.140625
 40
0.15625
 40
0.1640625
 40
0.171875
 40
0.1796875
 40
0.1875
 40
0.21875
 40
0.25
 40
0.28125
 40
0.3125
 40
0.3203125
 40
0.328125
 40
0.33203125
 40
0.3359375
 40
0.34375
 40
0.359375
 40
0.375
 40
0.40625
 40
0.4375
 40
0.453125
 40
0.46875
 40
0.484375
 40
0.4921875
 40
0.5
 40
0.5078125
 40
0.515625
 40
0.53125
 40
0.546875
 40
0.5625
 40
0.59375
 40
0.625
 40
0.640625
 40
0.65625
 40
0.6640625
 40
0.66796875
 40
0.671875
 40
0.6796875
 40
0.6875
 40
0.71875
 40
0.75
 40
0.78125
 40
0.8125
 40
0.8203125
 40
0.828125
 40
0.83203125
 40
0.8359375
 40
0.84375
 40
0.859375
 40
0.875
 40
0.90625
 40
0.9375
 40
1.0
 40
1.0
 40
1.0
 40
1.0
 10
17.9566955579
 20
13.7834289345
 30
0.0
 10
17.9579494701
 20
13.7885830402
 30
0.0
 10
17.959829413
 20
13.7963143241
 30
0.0
 10
17.9623397053
 20
13.8066222012
 30
0.0
 10
17.9639009257
 20
13.8130656692
 30
0.0
 10
17.9651674862
 20
13.8182180612
 30
0.0
 10
17.9659189821
 20
13.8214437399
 30
0.0
 10
17.9666120334
 20
13.8240118376
 30
0.0
 10
17.9668803209
 20
13.8259719865
 30
0.0
 10
17.9670781348
 20
13.8279416846
 30
0.0
 10
17.9675100028
 20
13.8318761641
 30
0.0
 10
17.9681427552
 20
13.8377800171
 30
0.0
 10
17.9689942088
 20
13.8456502743
 30
0.0
 10
17.9698466333
 20
13.8535221664
 30
0.0
 10
17.9704772013
 20
13.8594223408
 30
0.0
 10
17.9709118605
 20
13.8633615207
 30
0.0
 10
17.9710715982
 20
13.8649943354
 30
0.0
 10
17.971249249
 20
13.8663204387
 30
0.0
 10
17.9712445535
 20
13.8675739441
 30
0.0
 10
17.9711516127
 20
13.8697338477
 30
0.0
 10
17.9710630519
 20
13.8728370242
 30
0.0
 10
17.9708966045
 20
13.8777922665
 30
0.0
 10
17.9706973237
 20
13.88398972
 30
0.0
 10
17.9704938669
 20
13.8901858708
 30
0.0
 10
17.9703341012
 20
13.8951431976
 30
0.0
 10
17.9702077832
 20
13.8988607557
 30
0.0
 10
17.9701229142
 20
13.9019600083
 30
0.0
 10
17.9700093154
 20
13.9044365389
 30
0.0
 10
17.9700489896
 20
13.9063017786
 30
0.0
 10
17.9696120222
 20
13.9081370869
 30
0.0
 10
17.9691958967
 20
13.9105946205
 30
0.0
 10
17.9686186106
 20
13.9136629474
 30
0.0
 10
17.9679503407
 20
13.9173464884
 30
0.0
 10
17.967050665
 20
13.9222572753
 30
0.0
 10
17.965929756
 20
13.9283963948
 30
0.0
 10
17.9648049163
 20
13.9345337224
 30
0.0
 10
17.9639115296
 20
13.9394473763
 30
0.0
 10
17.9633389155
 20
13.9425098266
 30
0.0
 10
17.9629665865
 20
13.9446707374
 30
0.0
 10
17.9627092428
 20
13.9458786404
 30
0.0
 10
17.9622839743
 20
13.946985213
 30
0.0
 10
17.9618097875
 20
13.9484030641
 30
0.0
 10
17.9606244847
 20
13.9517773981
 30
0.0
 10
17.9588665625
 20
13.9568509063
 30
0.0
 10
17.9565103376
 20
13.9636085632
 30
0.0
 10
17.9541606924
 20
13.9703686874
 30
0.0
 10
17.9523879661
 20
13.975436644
 30
0.0
 10
17.9512215797
 20
13.9788180717
 30
0.0
 10
17.9507127813
 20
13.9802229434
 30
0.0
 10
17.9503589292
 20
13.9813562975
 30
0.0
 10
17.949810574
 20
13.9824550698
 30
0.0
 10
17.948760582
 20
13.9843618542
 30
0.0
 10
17.9473077442
 20
13.9870942149
 30
0.0
 10
17.9449568532
 20
13.9914613071
 30
0.0
 10
17.9420272657
 20
13.9969217772
 30
0.0
 10
17.9373348583
 20
14.0056576285
 30
0.0
 10
17.9338166929
 20
14.0122097196
 30
0.0
 10
17.931470996
 20
14.0165777353
 30
0.0
  0
SPLINE
  5
343
100
AcDbEntity
  8
02__ASM_ALL_AXES
100
AcDbSpline
 62
7
  6
BYLAYER
 70
0
 71
3
 72
66
 73
62
 74
0
 42
0.0000001
 43
0.0000001
 44
0.0000000001
 40
0.0
 40
0.0
 40
0.0
 40
0.0
 40
0.0625
 40
0.09375
 40
0.125
 40
0.140625
 40
0.15625
 40
0.1640625
 40
0.16796875
 40
0.171875
 40
0.1796875
 40
0.1875
 40
0.203125
 40
0.21875
 40
0.25
 40
0.28125
 40
0.3125
 40
0.3203125
 40
0.328125
 40
0.33203125
 40
0.3359375
 40
0.34375
 40
0.359375
 40
0.375
 40
0.40625
 40
0.4375
 40
0.453125
 40
0.46875
 40
0.484375
 40
0.4921875
 40
0.49609375
 40
0.5
 40
0.50390625
 40
0.5078125
 40
0.515625
 40
0.53125
 40
0.546875
 40
0.5625
 40
0.59375
 40
0.625
 40
0.640625
 40
0.65625
 40
0.6640625
 40
0.66796875
 40
0.671875
 40
0.6796875
 40
0.6875
 40
0.71875
 40
0.75
 40
0.78125
 40
0.8125
 40
0.8203125
 40
0.828125
 40
0.83203125
 40
0.8359375
 40
0.84375
 40
0.859375
 40
0.875
 40
0.90625
 40
0.9375
 40
1.0
 40
1.0
 40
1.0
 40
1.0
 10
17.9314709964
 20
14.0165777347
 30
0.0
 10
17.928059607
 20
14.0209584011
 30
0.0
 10
17.9229420727
 20
14.027529174
 30
0.0
 10
17.9161204944
 20
14.0362911114
 30
0.0
 10
17.9118532563
 20
14.0417654331
 30
0.0
 10
17.9084480195
 20
14.0461491978
 30
0.0
 10
17.9063002382
 20
14.048879227
 30
0.0
 10
17.9048358877
 20
14.050809935
 30
0.0
 10
17.9039379461
 20
14.0518823937
 30
0.0
 10
17.9028095685
 20
14.052838813
 30
0.0
 10
17.9014779971
 20
14.0540740684
 30
0.0
 10
17.8993033915
 20
14.0560282756
 30
0.0
 10
17.8966002172
 20
14.0584786196
 30
0.0
 10
17.8922667918
 20
14.0623950294
 30
0.0
 10
17.8868522779
 20
14.067291256
 30
0.0
 10
17.8803564954
 20
14.0731695095
 30
0.0
 10
17.8754770346
 20
14.0775689979
 30
0.0
 10
17.8722362565
 20
14.0805164572
 30
0.0
 10
17.8708677239
 20
14.0817230095
 30
0.0
 10
17.8698153785
 20
14.0827385384
 30
0.0
 10
17.8686076769
 20
14.0835701635
 30
0.0
 10
17.866422017
 20
14.0849400615
 30
0.0
 10
17.8633373051
 20
14.086941639
 30
0.0
 10
17.8583807302
 20
14.0901192554
 30
0.0
 10
17.8521921429
 20
14.0940997619
 30
0.0
 10
17.8460013253
 20
14.0980774584
 30
0.0
 10
17.8410483188
 20
14.1012595709
 30
0.0
 10
17.8373359592
 20
14.1036479754
 30
0.0
 10
17.834234489
 20
14.1056322642
 30
0.0
 10
17.8320788699
 20
14.1070331713
 30
0.0
 10
17.8308230216
 20
14.1078150958
 30
0.0
 10
17.8299489305
 20
14.1084539192
 30
0.0
 10
17.8288156916
 20
14.1088925192
 30
0.0
 10
17.8273951001
 20
14.1095471593
 30
0.0
 10
17.8248669492
 20
14.1106602402
 30
0.0
 10
17.8212773208
 20
14.1122673624
 30
0.0
 10
17.8169603552
 20
14.1141886532
 30
0.0
 10
17.8112076294
 20
14.1167527912
 30
0.0
 10
17.8040160386
 20
14.1199579765
 30
0.0
 10
17.7968231461
 20
14.1231600893
 30
0.0
 10
17.7910725032
 20
14.1257291433
 30
0.0
 10
17.7874698246
 20
14.1273179288
 30
0.0
 10
17.7849650526
 20
14.1284639017
 30
0.0
 10
17.7835069929
 20
14.129065823
 30
0.0
 10
17.7819481356
 20
14.1294684195
 30
0.0
 10
17.7800340182
 20
14.1300397966
 30
0.0
 10
17.7754117688
 20
14.1313550144
 30
0.0
 10
17.7684904585
 20
14.1333515725
 30
0.0
 10
17.7592544402
 20
14.135999257
 30
0.0
 10
17.7500231038
 20
14.138653886
 30
0.0
 10
17.7430912591
 20
14.140634819
 30
0.0
 10
17.7384824702
 20
14.1419700021
 30
0.0
 10
17.7365437241
 20
14.1425048484
 30
0.0
 10
17.7350356847
 20
14.1429828213
 30
0.0
 10
17.7333705494
 20
14.1432775948
 30
0.0
 10
17.7303835724
 20
14.1437083296
 30
0.0
 10
17.7261545451
 20
14.1443680759
 30
0.0
 10
17.7193668185
 20
14.1453988505
 30
0.0
 10
17.7108894506
 20
14.1466958207
 30
0.0
 10
17.6973215693
 20
14.1487662
 30
0.0
 10
17.6871465791
 20
14.1503200584
 30
0.0
 10
17.6803630477
 20
14.1513557253
 30
0.0
  0
SPLINE
  5
344
100
AcDbEntity
  8
02__ASM_ALL_AXES
100
AcDbSpline
 62
7
  6
BYLAYER
 70
0
 71
3
 72
63
 73
59
 74
0
 42
0.0000001
 43
0.0000001
 44
0.0000000001
 40
0.0
 40
0.0
 40
0.0
 40
0.0
 40
0.0625
 40
0.09375
 40
0.125
 40
0.140625
 40
0.15625
 40
0.1640625
 40
0.16796875
 40
0.171875
 40
0.1796875
 40
0.1875
 40
0.21875
 40
0.25
 40
0.28125
 40
0.3125
 40
0.3203125
 40
0.328125
 40
0.33203125
 40
0.3359375
 40
0.34375
 40
0.359375
 40
0.375
 40
0.40625
 40
0.4375
 40
0.453125
 40
0.46875
 40
0.484375
 40
0.4921875
 40
0.5
 40
0.5078125
 40
0.515625
 40
0.53125
 40
0.546875
 40
0.5625
 40
0.59375
 40
0.625
 40
0.640625
 40
0.65625
 40
0.6640625
 40
0.66796875
 40
0.671875
 40
0.6796875
 40
0.6875
 40
0.71875
 40
0.75
 40
0.78125
 40
0.8125
 40
0.8203125
 40
0.828125
 40
0.83203125
 40
0.8359375
 40
0.84375
 40
0.859375
 40
0.875
 40
0.90625
 40
0.9375
 40
1.0
 40
1.0
 40
1.0
 40
1.0
 10
17.6803630477
 20
14.1513557253
 30
0.0
 10
17.6734230099
 20
14.1515876492
 30
0.0
 10
17.6630128482
 20
14.1519351584
 30
0.0
 10
17.6491330526
 20
14.1524000106
 30
0.0
 10
17.6404573053
 20
14.1526874046
 30
0.0
 10
17.6335187025
 20
14.1529244757
 30
0.0
 10
17.6291775258
 20
14.1530563248
 30
0.0
 10
17.6261478207
 20
14.1531813266
 30
0.0
 10
17.6244022937
 20
14.1532015823
 30
0.0
 10
17.6226030304
 20
14.1530290917
 30
0.0
 10
17.6203723191
 20
14.1528793613
 30
0.0
 10
17.6150034896
 20
14.1524657707
 30
0.0
 10
17.6069566662
 20
14.1518683569
 30
0.0
 10
17.5962235686
 20
14.1510577623
 30
0.0
 10
17.585492772
 20
14.1502543321
 30
0.0
 10
17.5774407716
 20
14.1496407985
 30
0.0
 10
17.5720785571
 20
14.1492478055
 30
0.0
 10
17.5698357423
 20
14.1490603875
 30
0.0
 10
17.5680614529
 20
14.1489656603
 30
0.0
 10
17.5662141608
 20
14.1486690411
 30
0.0
 10
17.562947481
 20
14.1480561531
 30
0.0
 10
17.5582984909
 20
14.1472295484
 30
0.0
 10
17.5508502271
 20
14.1458795837
 30
0.0
 10
17.5415432139
 20
14.1442018082
 30
0.0
 10
17.5322352843
 20
14.1425195575
 30
0.0
 10
17.5247884866
 20
14.1411767532
 30
0.0
 10
17.5192053005
 20
14.1401633463
 30
0.0
 10
17.5145464606
 20
14.1393386042
 30
0.0
 10
17.510833276
 20
14.1386345296
 30
0.0
 10
17.5080104365
 20
14.1382274582
 30
0.0
 10
17.5053324577
 20
14.1373585892
 30
0.0
 10
17.5017112176
 20
14.1363614099
 30
0.0
 10
17.4972020284
 20
14.1350595847
 30
0.0
 10
17.4917835714
 20
14.1335211103
 30
0.0
 10
17.484561552
 20
14.1314614091
 30
0.0
 10
17.4755331786
 20
14.1288905077
 30
0.0
 10
17.4665049645
 20
14.1263152084
 30
0.0
 10
17.45928269
 20
14.1242625439
 30
0.0
 10
17.4547679467
 20
14.1229628901
 30
0.0
 10
17.4516092873
 20
14.1220866262
 30
0.0
 10
17.4498017383
 20
14.1215335076
 30
0.0
 10
17.4479843936
 20
14.1207830403
 30
0.0
 10
17.4457160604
 20
14.119912412
 30
0.0
 10
17.4402693106
 20
14.1177673736
 30
0.0
 10
17.4321002669
 20
14.1145733007
 30
0.0
 10
17.4212079427
 20
14.1103003468
 30
0.0
 10
17.4103143762
 20
14.1060340523
 30
0.0
 10
17.4021481276
 20
14.1028249958
 30
0.0
 10
17.3966978063
 20
14.1006991032
 30
0.0
 10
17.3944360078
 20
14.0997934439
 30
0.0
 10
17.3926051796
 20
14.0991152583
 30
0.0
 10
17.3908525742
 20
14.0982676018
 30
0.0
 10
17.3878218591
 20
14.0967054629
 30
0.0
 10
17.3834733035
 20
14.0945149186
 30
0.0
 10
17.3765262118
 20
14.0909870884
 30
0.0
 10
17.3678387172
 20
14.0865851652
 30
0.0
 10
17.3539407637
 20
14.0795376729
 30
0.0
 10
17.34351684
 20
14.0742530472
 30
0.0
 10
17.3365676595
 20
14.0707297425
 30
0.0
  0
LINE
  5
345
100
AcDbEntity
  8
02__ASM_ALL_AXES
100
AcDbLine
 62
7
  6
BYLAYER
 10
17.3365676655
 20
14.070729746
 11
17.3325820851
 21
14.0684451532
  0
SPLINE
  5
346
100
AcDbEntity
  8
02__ASM_ALL_AXES
100
AcDbSpline
 62
7
  6
BYLAYER
 70
0
 71
3
 72
34
 73
30
 74
0
 42
0.0000001
 43
0.0000001
 44
0.0000000001
 40
0.0
 40
0.0
 40
0.0
 40
0.0
 40
0.125
 40
0.1875
 40
0.25
 40
0.28125
 40
0.3125
 40
0.328125
 40
0.34375
 40
0.375
 40
0.4375
 40
0.46875
 40
0.484375
 40
0.5
 40
0.515625
 40
0.53125
 40
0.5625
 40
0.625
 40
0.65625
 40
0.671875
 40
0.6875
 40
0.71875
 40
0.75
 40
0.78125
 40
0.8125
 40
0.84375
 40
0.875
 40
0.9375
 40
1.0
 40
1.0
 40
1.0
 40
1.0
 10
17.3325820852
 20
14.0684451532
 30
0.0
 10
17.3294015659
 20
14.06655844
 30
0.0
 10
17.3246232442
 20
14.0637377867
 30
0.0
 10
17.3182823197
 20
14.0599392492
 30
0.0
 10
17.3143809109
 20
14.057472492
 30
0.0
 10
17.3112536662
 20
14.0555255422
 30
0.0
 10
17.3092835981
 20
14.0542888943
 30
0.0
 10
17.3077463695
 20
14.0533404924
 30
0.0
 10
17.3060662692
 20
14.0522442681
 30
0.0
 10
17.3030584757
 20
14.0502567044
 30
0.0
 10
17.2996562365
 20
14.0480174432
 30
0.0
 10
17.2966543926
 20
14.0460426303
 30
0.0
 10
17.2949640931
 20
14.0449245474
 30
0.0
 10
17.2936283586
 20
14.0440592574
 30
0.0
 10
17.2925521437
 20
14.043295688
 30
0.0
 10
17.2910265213
 20
14.042241953
 30
0.0
 10
17.2884003911
 20
14.0404161411
 30
0.0
 10
17.2853713883
 20
14.0383114598
 30
0.0
 10
17.2827500436
 20
14.0364989919
 30
0.0
 10
17.2812162175
 20
14.0354223814
 30
0.0
 10
17.2795495531
 20
14.0341928396
 30
0.0
 10
17.2775120133
 20
14.0327084413
 30
0.0
 10
17.2750464276
 20
14.0309044212
 30
0.0
 10
17.2725897288
 20
14.0291073234
 30
0.0
 10
17.2701180203
 20
14.0273052787
 30
0.0
 10
17.2676974635
 20
14.0255160995
 30
0.0
 10
17.264710936
 20
14.0231893921
 30
0.0
 10
17.2608945774
 20
14.0202606763
 30
0.0
 10
17.2578668465
 20
14.0179239
 30
0.0
 10
17.2563498115
 20
14.0167547373
 30
0.0
  0
LINE
  5
347
100
AcDbEntity
  8
02__ASM_ALL_AXES
100
AcDbLine
 62
7
  6
BYLAYER
 10
17.2563498101
 20
14.0167547362
 11
17.2518890117
 21
14.0131942152
  0
SPLINE
  5
348
100
AcDbEntity
  8
02__ASM_ALL_AXES
100
AcDbSpline
 62
7
  6
BYLAYER
 70
0
 71
3
 72
53
 73
49
 74
0
 42
0.0000001
 43
0.0000001
 44
0.0000000001
 40
0.0
 40
0.0
 40
0.0
 40
0.0
 40
0.0625
 40
0.09375
 40
0.125
 40
0.140625
 40
0.15625
 40
0.1640625
 40
0.171875
 40
0.1875
 40
0.21875
 40
0.25
 40
0.28125
 40
0.3125
 40
0.328125
 40
0.3359375
 40
0.34375
 40
0.359375
 40
0.375
 40
0.4375
 40
0.46875
 40
0.484375
 40
0.4921875
 40
0.5
 40
0.5078125
 40
0.515625
 40
0.53125
 40
0.5625
 40
0.625
 40
0.640625
 40
0.65625
 40
0.6640625
 40
0.671875
 40
0.6796875
 40
0.6875
 40
0.71875
 40
0.75
 40
0.78125
 40
0.8125
 40
0.8203125
 40
0.828125
 40
0.8359375
 40
0.84375
 40
0.859375
 40
0.875
 40
0.90625
 40
0.9375
 40
1.0
 40
1.0
 40
1.0
 40
1.0
 10
17.2518890119
 20
14.0131942153
 30
0.0
 10
17.2472297367
 20
14.0091127134
 30
0.0
 10
17.240241268
 20
14.0029898616
 30
0.0
 10
17.2309215336
 20
13.9948284548
 30
0.0
 10
17.2251004
 20
13.9897225845
 30
0.0
 10
17.2204350562
 20
13.985649268
 30
0.0
 10
17.2175384585
 20
13.9830774915
 30
0.0
 10
17.2151771083
 20
13.9810795141
 30
0.0
 10
17.2129766525
 20
13.9788645244
 30
0.0
 10
17.2092006664
 20
13.9748874381
 30
0.0
 10
17.2037668581
 20
13.9692588224
 30
0.0
 10
17.1972650938
 20
13.9624809143
 30
0.0
 10
17.1907513747
 20
13.9557125854
 30
0.0
 10
17.1853474536
 20
13.9500600216
 30
0.0
 10
17.1815191648
 20
13.9461248445
 30
0.0
 10
17.1794023933
 20
13.9438428001
 30
0.0
 10
17.1775522751
 20
13.9414351756
 30
0.0
 10
17.1751484183
 20
13.9384685919
 30
0.0
 10
17.1694548093
 20
13.9313132407
 30
0.0
 10
17.1627809983
 20
13.9229792468
 30
0.0
 10
17.1561347971
 20
13.9146346119
 30
0.0
 10
17.1527890422
 20
13.9104699065
 30
0.0
 10
17.1509120739
 20
13.9080785457
 30
0.0
 10
17.1494061453
 20
13.9063174376
 30
0.0
 10
17.1482755806
 20
13.9044324442
 30
0.0
 10
17.1466372223
 20
13.9019623326
 30
0.0
 10
17.1438311782
 20
13.8976195004
 30
0.0
 10
17.138173522
 20
13.8889486115
 30
0.0
 10
17.1325449424
 20
13.8802696166
 30
0.0
 10
17.1276906873
 20
13.8728372942
 30
0.0
 10
17.1257038322
 20
13.869732993
 30
0.0
 10
17.1240315211
 20
13.8672668709
 30
0.0
 10
17.1230043181
 20
13.865369823
 30
0.0
 10
17.1220407414
 20
13.8634594756
 30
0.0
 10
17.1200808511
 20
13.8596456248
 30
0.0
 10
17.1171548728
 20
13.8539219336
 30
0.0
 10
17.113245137
 20
13.8462922041
 30
0.0
 10
17.1093395648
 20
13.838661258
 30
0.0
 10
17.1064042184
 20
13.8329403042
 30
0.0
 10
17.1044562985
 20
13.8291229556
 30
0.0
 10
17.1034664388
 20
13.8272202881
 30
0.0
 10
17.1025383826
 20
13.8252942692
 30
0.0
 10
17.1015950408
 20
13.8226151348
 30
0.0
 10
17.1003151755
 20
13.8193042605
 30
0.0
 10
17.0983236614
 20
13.8139856005
 30
0.0
 10
17.0958149935
 20
13.8073445585
 30
0.0
 10
17.091811946
 20
13.7967148025
 30
0.0
 10
17.0888072256
 20
13.7887434055
 30
0.0
 10
17.0868046197
 20
13.7834289364
 30
0.0
  0
SPLINE
  5
349
100
AcDbEntity
  8
0
100
AcDbSpline
 62
7
  6
BYLAYER
 70
0
 71
3
 72
21
 73
17
 74
0
 42
0.0000001
 43
0.0000001
 44
0.0000000001
 40
0.0
 40
0.0
 40
0.0
 40
0.0
 40
0.1324824576
 40
0.2011727212
 40
0.2707179116
 40
0.4097755208
 40
0.4782500517
 40
0.5452191035
 40
0.6102110248
 40
0.6728614696
 40
0.7329450328
 40
0.7904063118
 40
0.8453873094
 40
0.8982431366
 40
0.9495364316
 40
1.0
 40
1.0
 40
1.0
 40
1.0
 10
17.6663174761
 20
14.2512491722
 30
0.0
 10
17.6151522793
 20
14.2512491722
 30
0.0
 10
17.5372067604
 20
14.2420527021
 30
0.0
 10
17.4363016764
 20
14.2142742391
 30
0.0
 10
17.3362266859
 20
14.1757394418
 30
0.0
 10
17.2422893324
 20
14.1228010956
 30
0.0
 10
17.1585911312
 20
14.0575069665
 30
0.0
 10
17.1026797214
 20
14.0037515055
 30
0.0
 10
17.0543772769
 20
13.9459644818
 30
0.0
 10
17.0145554167
 20
13.8851676938
 30
0.0
 10
16.9839536681
 20
13.8224417984
 30
0.0
 10
16.9631577116
 20
13.7588974884
 30
0.0
 10
16.9525942757
 20
13.6956719979
 30
0.0
 10
16.9525280664
 20
13.6339116878
 30
0.0
 10
16.9630230114
 20
13.5748106393
 30
0.0
 10
16.9770280937
 20
13.537799585
 30
0.0
 10
16.9856160392
 20
13.5203045432
 30
0.0
  0
SPLINE
  5
34A
100
AcDbEntity
  8
0
100
AcDbSpline
 62
7
  6
BYLAYER
 70
0
 71
3
 72
14
 73
10
 74
0
 42
0.0000001
 43
0.0000001
 44
0.0000000001
 40
0.0
 40
0.0
 40
0.0
 40
0.0
 40
0.2773975432
 40
0.4084919385
 40
0.5344224091
 40
0.6556036481
 40
0.772814389
 40
0.8871599561
 40
1.0
 40
1.0
 40
1.0
 40
1.0
 10
17.6663174761
 20
14.2512491722
 30
0.0
 10
17.709328765
 20
14.2512491722
 30
0.0
 10
17.7730541585
 20
14.2449212109
 30
0.0
 10
17.8528363083
 20
14.2219132604
 30
0.0
 10
17.9067864073
 20
14.1984593223
 30
0.0
 10
17.9550970234
 20
14.1688028643
 30
0.0
 10
17.9970380314
 20
14.1333482032
 30
0.0
 10
18.0319318889
 20
14.0926240275
 30
0.0
 10
18.0501744261
 20
14.0622592628
 30
0.0
 10
18.0578841379
 20
14.0465533259
 30
0.0
  0
SPLINE
  5
34B
100
AcDbEntity
  8
02___PRT_ALL_AXES
100
AcDbSpline
 62
7
  6
BYLAYER
 70
0
 71
3
 72
14
 73
10
 74
0
 42
0.0000001
 43
0.0000001
 44
0.0000000001
 40
0.0
 40
0.0
 40
0.0
 40
0.0
 40
0.2699413971
 40
0.409422653
 40
0.5451038101
 40
0.6729232389
 40
0.7905540687
 40
0.898363335
 40
1.0
 40
1.0
 40
1.0
 40
1.0
 10
17.736639888
 20
13.483571061
 30
0.0
 10
17.745146943
 20
13.483571061
 30
0.0
 10
17.7581752901
 20
13.4866516443
 30
0.0
 10
17.773185059
 20
13.4951208945
 30
0.0
 10
17.7828928724
 20
13.5034603441
 30
0.0
 10
17.7901822877
 20
13.5131366321
 30
0.0
 10
17.7945328731
 20
13.5235363928
 30
0.0
 10
17.7955408566
 20
13.5339752365
 30
0.0
 10
17.7937754324
 20
13.5405229903
 30
0.0
 10
17.7923653983
 20
13.5433989536
 30
0.0
  0
SPLINE
  5
34C
100
AcDbEntity
  8
02___PRT_ALL_AXES
100
AcDbSpline
 62
7
  6
BYLAYER
 70
0
 71
3
 72
19
 73
15
 74
0
 42
0.0000001
 43
0.0000001
 44
0.0000000001
 40
0.0
 40
0.0
 40
0.0
 40
0.0
 40
0.0533440231
 40
0.1095469655
 40
0.1691887665
 40
0.2324853322
 40
0.3679987391
 40
0.5101117299
 40
0.6498836108
 40
0.779221135
 40
0.8387828776
 40
0.8948654775
 40
0.9481769832
 40
1.0
 40
1.0
 40
1.0
 40
1.0
 10
17.3672320698
 20
13.3864452118
 30
0.0
 10
17.3687005133
 20
13.3847511318
 30
0.0
 10
17.3721727481
 20
13.3816485009
 30
0.0
 10
17.3784552014
 20
13.3782088943
 30
0.0
 10
17.3856992119
 20
13.3759892715
 30
0.0
 10
17.3965326151
 20
13.3747060501
 30
0.0
 10
17.4109777319
 20
13.3765106366
 30
0.0
 10
17.427356365
 20
13.3833136773
 30
0.0
 10
17.4412402846
 20
13.3939358852
 30
0.0
 10
17.4495421359
 20
13.4053117423
 30
0.0
 10
17.4531534317
 20
13.4150163664
 30
0.0
 10
17.4542426705
 20
13.422090769
 30
0.0
 10
17.4537181381
 20
13.4289089666
 30
0.0
 10
17.4522735928
 20
13.4331451762
 30
0.0
 10
17.4513102848
 20
13.4350985656
 30
0.0
  0
SPLINE
  5
34D
100
AcDbEntity
  8
02___PRT_ALL_AXES
100
AcDbSpline
 62
7
  6
BYLAYER
 70
0
 71
3
 72
10
 73
6
 74
0
 42
0.0000001
 43
0.0000001
 44
0.0000000001
 40
0.0
 40
0.0
 40
0.0
 40
0.0
 40
0.5161344746
 40
0.7604943016
 40
1.0
 40
1.0
 40
1.0
 40
1.0
 10
17.1783981085
 20
13.5218670433
 30
0.0
 10
17.1795171718
 20
13.5254883333
 30
0.0
 10
17.1803554219
 20
13.5311691488
 30
0.0
 10
17.1792644919
 20
13.5384696764
 30
0.0
 10
17.1780291499
 20
13.5418345621
 30
0.0
 10
17.1772532216
 20
13.5434129746
 30
0.0
  0
SPLINE
  5
34E
100
AcDbEntity
  8
02___PRT_ALL_AXES
100
AcDbSpline
 62
7
  6
BYLAYER
 70
0
 71
3
 72
13
 73
9
 74
0
 42
0.0000001
 43
0.0000001
 44
0.0000000001
 40
0.0
 40
0.0
 40
0.0
 40
0.0
 40
0.2850507291
 40
0.5475858214
 40
0.6688628205
 40
0.7835803219
 40
0.893194549
 40
1.0
 40
1.0
 40
1.0
 40
1.0
 10
17.1102772373
 20
13.7563495858
 30
0.0
 10
17.114784522
 20
13.7593850896
 30
0.0
 10
17.1227757475
 20
13.766302903
 30
0.0
 10
17.1298630535
 20
13.7771744128
 30
0.0
 10
17.1328132243
 20
13.7862622926
 30
0.0
 10
17.1335944764
 20
13.7928527828
 30
0.0
 10
17.132965906
 20
13.7991860818
 30
0.0
 10
17.131594628
 20
13.803126642
 30
0.0
 10
17.1306990086
 20
13.8049552012
 30
0.0
  0
SPLINE
  5
34F
100
AcDbEntity
  8
02___PRT_ALL_AXES
100
AcDbSpline
 62
7
  6
BYLAYER
 70
0
 71
3
 72
14
 73
10
 74
0
 42
0.0000001
 43
0.0000001
 44
0.0000000001
 40
0.0
 40
0.0
 40
0.0
 40
0.0
 40
0.2699413971
 40
0.409422653
 40
0.5451038101
 40
0.6729232389
 40
0.7905540687
 40
0.898363335
 40
1.0
 40
1.0
 40
1.0
 40
1.0
 10
17.2831915819
 20
14.0066948435
 30
0.0
 10
17.2916986368
 20
14.0066948435
 30
0.0
 10
17.3047269839
 20
14.0097754268
 30
0.0
 10
17.3197367528
 20
14.018244677
 30
0.0
 10
17.3294445662
 20
14.0265841266
 30
0.0
 10
17.3367339815
 20
14.0362604145
 30
0.0
 10
17.3410845669
 20
14.0466601753
 30
0.0
 10
17.3420925504
 20
14.057099019
 30
0.0
 10
17.3403271262
 20
14.0636467728
 30
0.0
 10
17.3389170921
 20
14.0665227361
 30
0.0
  0
SPLINE
  5
350
100
AcDbEntity
  8
02___PRT_ALL_AXES
100
AcDbSpline
 62
7
  6
BYLAYER
 70
0
 71
3
 72
19
 73
15
 74
0
 42
0.0000001
 43
0.0000001
 44
0.0000000001
 40
0.0
 40
0.0
 40
0.0
 40
0.0
 40
0.0533440231
 40
0.1095469655
 40
0.1691887665
 40
0.2324853322
 40
0.3679987391
 40
0.5101117299
 40
0.6498836108
 40
0.779221135
 40
0.8387828776
 40
0.8948654775
 40
0.9481769832
 40
1.0
 40
1.0
 40
1.0
 40
1.0
 10
17.5958502642
 20
14.1262539598
 30
0.0
 10
17.5973187076
 20
14.1245598798
 30
0.0
 10
17.6007909424
 20
14.1214572489
 30
0.0
 10
17.6070733957
 20
14.1180176423
 30
0.0
 10
17.6143174062
 20
14.1157980195
 30
0.0
 10
17.6251508095
 20
14.1145147981
 30
0.0
 10
17.6395959263
 20
14.1163193846
 30
0.0
 10
17.6559745593
 20
14.1231224253
 30
0.0
 10
17.6698584789
 20
14.1337446332
 30
0.0
 10
17.6781603303
 20
14.1451204903
 30
0.0
 10
17.681771626
 20
14.1548251144
 30
0.0
 10
17.6828608648
 20
14.161899517
 30
0.0
 10
17.6823363325
 20
14.1687177146
 30
0.0
 10
17.6808917871
 20
14.1729539242
 30
0.0
 10
17.6799284791
 20
14.1749073135
 30
0.0
  0
SPLINE
  5
351
100
AcDbEntity
  8
02___PRT_ALL_AXES
100
AcDbSpline
 62
7
  6
BYLAYER
 70
0
 71
3
 72
10
 73
6
 74
0
 42
0.0000001
 43
0.0000001
 44
0.0000000001
 40
0.0
 40
0.0
 40
0.0
 40
0.0
 40
0.5161344746
 40
0.7604943016
 40
1.0
 40
1.0
 40
1.0
 40
1.0
 10
17.9551613657
 20
14.0449908257
 30
0.0
 10
17.956280429
 20
14.0486121158
 30
0.0
 10
17.9571186791
 20
14.0542929312
 30
0.0
 10
17.9560277491
 20
14.0615934589
 30
0.0
 10
17.9547924071
 20
14.0649583446
 30
0.0
 10
17.9540164788
 20
14.066536757
 30
0.0
  0
SPLINE
  5
352
100
AcDbEntity
  8
02___PRT_ALL_AXES
100
AcDbSpline
 62
7
  6
BYLAYER
 70
0
 71
3
 72
13
 73
9
 74
0
 42
0.0000001
 43
0.0000001
 44
0.0000000001
 40
0.0
 40
0.0
 40
0.0
 40
0.0
 40
0.2850507291
 40
0.5475858214
 40
0.6688628205
 40
0.7835803219
 40
0.893194549
 40
1.0
 40
1.0
 40
1.0
 40
1.0
 10
17.9801681761
 20
13.7563495858
 30
0.0
 10
17.9846754608
 20
13.7593850896
 30
0.0
 10
17.9926666863
 20
13.766302903
 30
0.0
 10
17.9997539923
 20
13.7771744128
 30
0.0
 10
18.0027041631
 20
13.7862622926
 30
0.0
 10
18.0034854151
 20
13.7928527828
 30
0.0
 10
18.0028568448
 20
13.7991860818
 30
0.0
 10
18.0014855668
 20
13.803126642
 30
0.0
 10
18.0005899474
 20
13.8049552012
 30
0.0
  0
SPLINE
  5
353
100
AcDbEntity
  8
0
100
AcDbSpline
 62
7
  6
BYLAYER
 70
0
 71
3
 72
11
 73
7
 74
0
 42
0.0000001
 43
0.0000001
 44
0.0000000001
 40
0.0
 40
0.0
 40
0.0
 40
0.0
 40
0.2643796584
 40
0.5171042956
 40
0.7609087708
 40
1.0
 40
1.0
 40
1.0
 40
1.0
 10
17.7776003646
 20
13.7834289345
 30
0.0
 10
17.7808627038
 20
13.7939858679
 30
0.0
 10
17.7856395726
 20
13.8151846934
 30
0.0
 10
17.7870808415
 20
13.8471312075
 30
0.0
 10
17.7825335722
 20
13.8777349736
 30
0.0
 10
17.7755187369
 20
13.8968399618
 30
0.0
 10
17.7711158828
 20
13.9058103024
 30
0.0
  0
SPLINE
  5
354
100
AcDbEntity
  8
0
100
AcDbSpline
 62
7
  6
BYLAYER
 70
0
 71
3
 72
11
 73
7
 74
0
 42
0.0000001
 43
0.0000001
 44
0.0000000001
 40
0.0
 40
0.0
 40
0.0
 40
0.0
 40
0.2777012624
 40
0.5377076874
 40
0.7786740921
 40
1.0
 40
1.0
 40
1.0
 40
1.0
 10
17.148012451
 20
13.0184213767
 30
0.0
 10
17.1547854197
 20
13.0403387115
 30
0.0
 10
17.1690085888
 20
13.0824471716
 30
0.0
 10
17.1932502499
 20
13.142076321
 30
0.0
 10
17.2195371432
 20
13.1956975419
 30
0.0
 10
17.2391222174
 20
13.2285535526
 30
0.0
 10
17.2492729431
 20
13.2437598281
 30
0.0
  0
SPLINE
  5
355
100
AcDbEntity
  8
0
100
AcDbSpline
 62
7
  6
BYLAYER
 70
0
 71
3
 72
15
 73
11
 74
0
 42
0.0000001
 43
0.0000001
 44
0.0000000001
 40
0.0
 40
0.0
 40
0.0
 40
0.0
 40
0.1113058588
 40
0.2295268894
 40
0.3532633898
 40
0.4810393618
 40
0.6112524439
 40
0.7422575316
 40
0.8723887113
 40
1.0
 40
1.0
 40
1.0
 40
1.0
 10
17.148012451
 20
13.0184213767
 30
0.0
 10
17.1384855339
 20
12.9875922618
 30
0.0
 10
17.1211551547
 20
12.9232888315
 30
0.0
 10
17.1006120177
 20
12.8229052233
 30
0.0
 10
17.0849619082
 20
12.7168159019
 30
0.0
 10
17.074437924
 20
12.6066094695
 30
0.0
 10
17.0692033242
 20
12.4939182076
 30
0.0
 10
17.0693365671
 20
12.3804227867
 30
0.0
 10
17.0748357848
 20
12.2678180963
 30
0.0
 10
17.0821255363
 20
12.1934174447
 30
0.0
 10
17.0866941598
 20
12.1567061073
 30
0.0
  0
SPLINE
  5
356
100
AcDbEntity
  8
0
100
AcDbSpline
 62
7
  6
BYLAYER
 70
0
 71
3
 72
21
 73
17
 74
0
 42
0.0000001
 43
0.0000001
 44
0.0000000001
 40
0.0
 40
0.0
 40
0.0
 40
0.0
 40
0.1749392556
 40
0.3390797982
 40
0.4161779572
 40
0.4895194795
 40
0.5588401353
 40
0.6239301823
 40
0.6846509965
 40
0.7409480075
 40
0.7928733795
 40
0.8406135971
 40
0.8845219291
 40
0.9251581829
 40
0.9633118851
 40
1.0
 40
1.0
 40
1.0
 40
1.0
 10
17.0866941598
 20
12.1567061073
 30
0.0
 10
17.0922690176
 20
12.1119091392
 30
0.0
 10
17.1058429346
 20
12.0253942768
 30
0.0
 10
17.1300983921
 20
11.9206542333
 30
0.0
 10
17.1534566293
 20
11.8428855607
 30
0.0
 10
17.1722798633
 20
11.7893680525
 30
0.0
 10
17.1926549858
 20
11.7397525509
 30
0.0
 10
17.2144655027
 20
11.6943327659
 30
0.0
 10
17.2375818998
 20
11.6533741525
 30
0.0
 10
17.261874878
 20
11.617115366
 30
0.0
 10
17.2872121193
 20
11.5857658655
 30
0.0
 10
17.3134650887
 20
11.559508892
 30
0.0
 10
17.340510277
 20
11.5385103622
 30
0.0
 10
17.3682276132
 20
11.5229249907
 30
0.0
 10
17.3964616188
 20
11.5129171844
 30
0.0
 10
17.4157075014
 20
11.5100330016
 30
0.0
 10
17.4251640475
 20
11.509582889
 30
0.0
  0
SPLINE
  5
357
100
AcDbEntity
  8
0
100
AcDbSpline
 62
7
  6
BYLAYER
 70
0
 71
3
 72
15
 73
11
 74
0
 42
0.0000001
 43
0.0000001
 44
0.0000000001
 40
0.0
 40
0.0
 40
0.0
 40
0.0
 40
0.172758025
 40
0.3319117447
 40
0.4763755511
 40
0.6058615397
 40
0.7207814068
 40
0.8225807492
 40
0.9141477816
 40
1.0
 40
1.0
 40
1.0
 40
1.0
 10
18.1713236002
 20
12.6471820901
 30
0.0
 10
18.1742397281
 20
12.6566186834
 30
0.0
 10
18.1804111891
 20
12.6745818237
 30
0.0
 10
18.1911735639
 20
12.6996320977
 30
0.0
 10
18.2029633769
 20
12.7214521711
 30
0.0
 10
18.2156450251
 20
12.7397802351
 30
0.0
 10
18.2290935401
 20
12.7544099599
 30
0.0
 10
18.2432174873
 20
12.765151625
 30
0.0
 10
18.2579117323
 20
12.771787684
 30
0.0
 10
18.2681063459
 20
12.7733133982
 30
0.0
 10
18.2730146764
 20
12.7733118815
 30
0.0
  0
SPLINE
  5
358
100
AcDbEntity
  8
02___PRT_ALL_AXES
100
AcDbSpline
 62
7
  6
BYLAYER
 70
0
 71
3
 72
11
 73
7
 74
0
 42
0.0000001
 43
0.0000001
 44
0.0000000001
 40
0.0
 40
0.0
 40
0.0
 40
0.0
 40
0.3156806228
 40
0.5821591739
 40
0.8046012074
 40
1.0
 40
1.0
 40
1.0
 40
1.0
 10
18.1605382032
 20
12.8618685139
 30
0.0
 10
18.1613095008
 20
12.8602967747
 30
0.0
 10
18.1629147247
 20
12.8574787412
 30
0.0
 10
18.1658025976
 20
12.8540341061
 30
0.0
 10
18.1689586692
 20
12.8518169587
 30
0.0
 10
18.171293947
 20
12.8512755074
 30
0.0
 10
18.1723776434
 20
12.8512766781
 30
0.0
  0
SPLINE
  5
359
100
AcDbEntity
  8
02___PRT_ALL_AXES
100
AcDbSpline
 62
7
  6
BYLAYER
 70
0
 71
3
 72
21
 73
17
 74
0
 42
0.0000001
 43
0.0000001
 44
0.0000000001
 40
0.0
 40
0.0
 40
0.0
 40
0.0
 40
0.0801866115
 40
0.1343893283
 40
0.1980477235
 40
0.2699655022
 40
0.348329046
 40
0.5151616757
 40
0.5987392803
 40
0.6790203582
 40
0.7536786352
 40
0.820721595
 40
0.8786760147
 40
0.9269360318
 40
0.9663150211
 40
1.0
 40
1.0
 40
1.0
 40
1.0
 10
18.0729529422
 20
12.6312201885
 30
0.0
 10
18.0701471916
 20
12.6303908509
 30
0.0
 10
18.0663420945
 20
12.626609235
 30
0.0
 10
18.0628471277
 20
12.6203614514
 30
0.0
 10
18.0603299152
 20
12.6138626829
 30
0.0
 10
18.058342842
 20
12.6063087991
 30
0.0
 10
18.0564161339
 20
12.5948855745
 30
0.0
 10
18.0558371862
 20
12.5828502693
 30
0.0
 10
18.056544212
 20
12.5707975948
 30
0.0
 10
18.0577219317
 20
12.5621647948
 30
0.0
 10
18.0594977259
 20
12.5542508709
 30
0.0
 10
18.06180881
 20
12.547326295
 30
0.0
 10
18.0645787778
 20
12.5416171076
 30
0.0
 10
18.0677313861
 20
12.5372950888
 30
0.0
 10
18.0712406099
 20
12.5344673551
 30
0.0
 10
18.0739289277
 20
12.5337609926
 30
0.0
 10
18.0751579793
 20
12.5337648469
 30
0.0
  0
SPLINE
  5
35A
100
AcDbEntity
  8
02___PRT_ALL_AXES
100
AcDbSpline
 62
7
  6
BYLAYER
 70
0
 71
3
 72
18
 73
14
 74
0
 42
0.0000001
 43
0.0000001
 44
0.0000000001
 40
0.0
 40
0.0
 40
0.0
 40
0.0
 40
0.1393852211
 40
0.2927819298
 40
0.4502785
 40
0.60149873
 40
0.736802521
 40
0.7960744217
 40
0.8488586442
 40
0.894900179
 40
0.9345235345
 40
0.9688231352
 40
1.0
 40
1.0
 40
1.0
 40
1.0
 10
18.0788863008
 20
12.2119532678
 30
0.0
 10
18.0776977103
 20
12.2081069874
 30
0.0
 10
18.0758809656
 20
12.1998143506
 30
0.0
 10
18.0746314998
 20
12.1868463512
 30
0.0
 10
18.0747803918
 20
12.1734729307
 30
0.0
 10
18.0763172756
 20
12.1607167517
 30
0.0
 10
18.0787392586
 20
12.1509845532
 30
0.0
 10
18.0813674059
 20
12.1443303462
 30
0.0
 10
18.0834898893
 20
12.1402751017
 30
0.0
 10
18.0858180585
 20
12.1370046297
 30
0.0
 10
18.0883222152
 20
12.1345726427
 30
0.0
 10
18.0909891862
 20
12.1330398162
 30
0.0
 10
18.0928923516
 20
12.1326758646
 30
0.0
 10
18.0937928057
 20
12.1326747101
 30
0.0
  0
SPLINE
  5
35B
100
AcDbEntity
  8
02___PRT_ALL_AXES
100
AcDbSpline
 62
7
  6
BYLAYER
 70
0
 71
3
 72
15
 73
11
 74
0
 42
0.0000001
 43
0.0000001
 44
0.0000000001
 40
0.0
 40
0.0
 40
0.0
 40
0.0
 40
0.1734563934
 40
0.3392725583
 40
0.4926163165
 40
0.6299720811
 40
0.7487638761
 40
0.8480145523
 40
0.9296139082
 40
1.0
 40
1.0
 40
1.0
 40
1.0
 10
18.1985313052
 20
11.9262605921
 30
0.0
 10
18.1986615226
 20
11.9233555406
 30
0.0
 10
18.1991170648
 20
11.9176800343
 30
0.0
 10
18.2003937259
 20
11.9095123056
 30
0.0
 10
18.2022170754
 20
11.9020679262
 30
0.0
 10
18.2045250185
 20
11.8955871041
 30
0.0
 10
18.207243165
 20
11.8902597701
 30
0.0
 10
18.2103113189
 20
11.8862357516
 30
0.0
 10
18.2137031782
 20
11.8836185666
 30
0.0
 10
18.2162699544
 20
11.8829610477
 30
0.0
 10
18.2174499652
 20
11.8829623092
 30
0.0
  0
SPLINE
  5
35C
100
AcDbEntity
  8
02___PRT_ALL_AXES
100
AcDbSpline
 62
7
  6
BYLAYER
 70
0
 71
3
 72
11
 73
7
 74
0
 42
0.0000001
 43
0.0000001
 44
0.0000000001
 40
0.0
 40
0.0
 40
0.0
 40
0.0
 40
0.3156806228
 40
0.5821591739
 40
0.8046012074
 40
1.0
 40
1.0
 40
1.0
 40
1.0
 10
18.3618015344
 20
11.9414970562
 30
0.0
 10
18.362572832
 20
11.9399253171
 30
0.0
 10
18.364178056
 20
11.9371072836
 30
0.0
 10
18.3670659288
 20
11.9336626485
 30
0.0
 10
18.3702220004
 20
11.9314455011
 30
0.0
 10
18.3725572782
 20
11.9309040498
 30
0.0
 10
18.3736409747
 20
11.9309052204
 30
0.0
  0
SPLINE
  5
35D
100
AcDbEntity
  8
02___PRT_ALL_AXES
100
AcDbSpline
 62
7
  6
BYLAYER
 70
0
 71
3
 72
21
 73
17
 74
0
 42
0.0000001
 43
0.0000001
 44
0.0000000001
 40
0.0
 40
0.0
 40
0.0
 40
0.0
 40
0.0801866115
 40
0.1343893283
 40
0.1980477235
 40
0.2699655022
 40
0.348329046
 40
0.5151616757
 40
0.5987392803
 40
0.6790203582
 40
0.7536786352
 40
0.820721595
 40
0.8786760147
 40
0.9269360318
 40
0.9663150211
 40
1.0
 40
1.0
 40
1.0
 40
1.0
 10
18.4687014158
 20
12.3458737401
 30
0.0
 10
18.4658956652
 20
12.3450444025
 30
0.0
 10
18.4620905681
 20
12.3412627866
 30
0.0
 10
18.4585956012
 20
12.3350150031
 30
0.0
 10
18.4560783887
 20
12.3285162345
 30
0.0
 10
18.4540913155
 20
12.3209623507
 30
0.0
 10
18.4521646074
 20
12.3095391261
 30
0.0
 10
18.4515856597
 20
12.2975038209
 30
0.0
 10
18.4522926856
 20
12.2854511464
 30
0.0
 10
18.4534704053
 20
12.2768183464
 30
0.0
 10
18.4552461995
 20
12.2689044225
 30
0.0
 10
18.4575572835
 20
12.2619798466
 30
0.0
 10
18.4603272513
 20
12.2562706593
 30
0.0
 10
18.4634798597
 20
12.2519486405
 30
0.0
 10
18.4669890835
 20
12.2491209068
 30
0.0
 10
18.4696774012
 20
12.2484145442
 30
0.0
 10
18.4709064528
 20
12.2484183985
 30
0.0
  0
SPLINE
  5
35E
100
AcDbEntity
  8
02___PRT_ALL_AXES
100
AcDbSpline
 62
7
  6
BYLAYER
 70
0
 71
3
 72
18
 73
14
 74
0
 42
0.0000001
 43
0.0000001
 44
0.0000000001
 40
0.0
 40
0.0
 40
0.0
 40
0.0
 40
0.1393852211
 40
0.2927819298
 40
0.4502785
 40
0.60149873
 40
0.736802521
 40
0.7960744217
 40
0.8488586442
 40
0.894900179
 40
0.9345235345
 40
0.9688231352
 40
1.0
 40
1.0
 40
1.0
 40
1.0
 10
18.4372958281
 20
12.7287839082
 30
0.0
 10
18.4361072376
 20
12.7249376278
 30
0.0
 10
18.4342904929
 20
12.7166449909
 30
0.0
 10
18.4330410272
 20
12.7036769916
 30
0.0
 10
18.4331899192
 20
12.6903035711
 30
0.0
 10
18.4347268029
 20
12.677547392
 30
0.0
 10
18.437148786
 20
12.6678151936
 30
0.0
 10
18.4397769332
 20
12.6611609865
 30
0.0
 10
18.4418994166
 20
12.6571057421
 30
0.0
 10
18.4442275858
 20
12.6538352701
 30
0.0
 10
18.4467317425
 20
12.6514032831
 30
0.0
 10
18.4493987135
 20
12.6498704566
 30
0.0
 10
18.4513018789
 20
12.649506505
 30
0.0
 10
18.452202333
 20
12.6495053505
 30
0.0
  0
SPLINE
  5
35F
100
AcDbEntity
  8
02___PRT_ALL_AXES
100
AcDbSpline
 62
7
  6
BYLAYER
 70
0
 71
3
 72
15
 73
11
 74
0
 42
0.0000001
 43
0.0000001
 44
0.0000000001
 40
0.0
 40
0.0
 40
0.0
 40
0.0
 40
0.1734563934
 40
0.3392725583
 40
0.4926163165
 40
0.6299720811
 40
0.7487638761
 40
0.8480145523
 40
0.9296139082
 40
1.0
 40
1.0
 40
1.0
 40
1.0
 10
18.3096504461
 20
12.9425159416
 30
0.0
 10
18.3097806635
 20
12.93961089
 30
0.0
 10
18.3102362057
 20
12.9339353838
 30
0.0
 10
18.3115128668
 20
12.925767655
 30
0.0
 10
18.3133362163
 20
12.9183232756
 30
0.0
 10
18.3156441594
 20
12.9118424535
 30
0.0
 10
18.3183623059
 20
12.9065151196
 30
0.0
 10
18.3214304598
 20
12.902491101
 30
0.0
 10
18.3248223191
 20
12.8998739161
 30
0.0
 10
18.3273890953
 20
12.8992163971
 30
0.0
 10
18.3285691061
 20
12.8992176587
 30
0.0
  0
SPLINE
  5
360
100
AcDbEntity
  8
0
100
AcDbSpline
 62
7
  6
BYLAYER
 70
0
 71
3
 72
21
 73
17
 74
0
 42
0.0000001
 43
0.0000001
 44
0.0000000001
 40
0.0
 40
0.0
 40
0.0
 40
0.0
 40
0.0505892619
 40
0.1022404438
 40
0.1558576348
 40
0.2120781273
 40
0.3330100333
 40
0.3978413902
 40
0.4649465355
 40
0.5337182769
 40
0.6034404849
 40
0.6733374564
 40
0.7426228706
 40
0.81055039
 40
0.8764555656
 40
1.0
 40
1.0
 40
1.0
 40
1.0
 10
17.2723842943
 20
13.6610475666
 30
0.0
 10
17.2769153555
 20
13.6518160178
 30
0.0
 10
17.2881179706
 20
13.6340903658
 30
0.0
 10
17.3104102511
 20
13.6112842401
 30
0.0
 10
17.3376772693
 20
13.5926446306
 30
0.0
 10
17.3807090715
 20
13.5734583212
 30
0.0
 10
17.4300318917
 20
13.5649425182
 30
0.0
 10
17.48149025
 20
13.5661881146
 30
0.0
 10
17.5219571436
 20
13.5722033178
 30
0.0
 10
17.5623831591
 20
13.5831438717
 30
0.0
 10
17.6018591339
 20
13.5987499109
 30
0.0
 10
17.6394657996
 20
13.6186612346
 30
0.0
 10
17.6743314128
 20
13.64240935
 30
0.0
 10
17.7056605567
 20
13.6694715733
 30
0.0
 10
17.7409215787
 20
13.7082020919
 30
0.0
 10
17.7613967851
 20
13.741609484
 30
0.0
 10
17.7709212927
 20
13.7648468933
 30
0.0
  0
SPLINE
  5
361
100
AcDbEntity
  8
02___PRT_ALL_AXES
100
AcDbSpline
 62
7
  6
BYLAYER
 70
0
 71
3
 72
13
 73
9
 74
0
 42
0.0000001
 43
0.0000001
 44
0.0000000001
 40
0.0
 40
0.0
 40
0.0
 40
0.0
 40
0.1031957305
 40
0.210660594
 40
0.3254562861
 40
0.4488597387
 40
0.717263436
 40
1.0
 40
1.0
 40
1.0
 40
1.0
 10
17.9128011685
 20
13.7619026678
 30
0.0
 10
17.9139424274
 20
13.7595725937
 30
0.0
 10
17.9170363008
 20
13.7551550632
 30
0.0
 10
17.923563129
 20
13.7500531302
 30
0.0
 10
17.9316414431
 20
13.7466175699
 30
0.0
 10
17.9442672539
 20
13.7443674545
 30
0.0
 10
17.9614801825
 20
13.7464287304
 30
0.0
 10
17.9742720441
 20
13.7523787403
 30
0.0
 10
17.9801681761
 20
13.7563495858
 30
0.0
  0
SPLINE
  5
362
100
AcDbEntity
  8
02___PRT_ALL_AXES
100
AcDbSpline
 62
7
  6
BYLAYER
 70
0
 71
3
 72
17
 73
13
 74
0
 42
0.0000001
 43
0.0000001
 44
0.0000000001
 40
0.0
 40
0.0
 40
0.0
 40
0.0
 40
0.050785639
 40
0.1027115068
 40
0.2130418717
 40
0.3354275365
 40
0.4686469943
 40
0.6079206891
 40
0.67794138
 40
0.747024586
 40
0.879108976
 40
1.0
 40
1.0
 40
1.0
 40
1.0
 10
17.8662469555
 20
14.0234448945
 30
0.0
 10
17.8670732436
 20
14.0217640387
 30
0.0
 10
17.8691305438
 20
14.0185401529
 30
0.0
 10
17.8747184606
 20
14.0129420294
 30
0.0
 10
17.8842946011
 20
14.0080185213
 30
0.0
 10
17.8978369186
 20
14.006063934
 30
0.0
 10
17.9124370011
 20
14.0078682704
 30
0.0
 10
17.9243809295
 20
14.0123338443
 30
0.0
 10
17.9332700679
 20
14.0175093155
 30
0.0
 10
17.9412872976
 20
14.0235208307
 30
0.0
 10
17.9494848335
 20
14.032285936
 30
0.0
 10
17.9538450177
 20
14.0407311221
 30
0.0
 10
17.9551613657
 20
14.0449908257
 30
0.0
  0
SPLINE
  5
363
100
AcDbEntity
  8
02___PRT_ALL_AXES
100
AcDbSpline
 62
7
  6
BYLAYER
 70
0
 71
3
 72
11
 73
7
 74
0
 42
0.0000001
 43
0.0000001
 44
0.0000000001
 40
0.0
 40
0.0
 40
0.0
 40
0.0
 40
0.2268632804
 40
0.4650145788
 40
0.722100556
 40
1.0
 40
1.0
 40
1.0
 40
1.0
 10
17.2511347788
 20
14.0234589154
 30
0.0
 10
17.2524001044
 20
14.0208781054
 30
0.0
 10
17.2559405404
 20
14.0160060467
 30
0.0
 10
17.2635142019
 20
14.0106359463
 30
0.0
 10
17.2728627128
 20
14.0073702224
 30
0.0
 10
17.2796706605
 20
14.0066948435
 30
0.0
 10
17.2831915819
 20
14.0066948435
 30
0.0
  0
SPLINE
  5
364
100
AcDbEntity
  8
0
100
AcDbSpline
 62
7
  6
BYLAYER
 70
0
 71
3
 72
16
 73
12
 74
0
 42
0.0000001
 43
0.0000001
 44
0.0000000001
 40
0.0
 40
0.0
 40
0.0
 40
0.0
 40
0.1727316813
 40
0.3318241674
 40
0.4762542704
 40
0.6057229971
 40
0.7206169204
 40
0.8223984744
 40
0.9139520491
 40
0.9573476449
 40
1.0
 40
1.0
 40
1.0
 40
1.0
 10
17.914014466
 20
12.8587021487
 30
0.0
 10
17.9199072384
 20
12.8777711671
 30
0.0
 10
17.9323755442
 20
12.914066646
 30
0.0
 10
17.9541219832
 20
12.9646816406
 30
0.0
 10
17.9779435888
 20
13.0087700265
 30
0.0
 10
18.0035614531
 20
13.0458087172
 30
0.0
 10
18.030742476
 20
13.0753716881
 30
0.0
 10
18.0592588202
 20
13.0970820287
 30
0.0
 10
18.0844883186
 20
13.1084593076
 30
0.0
 10
18.104592872
 20
13.1128602633
 30
0.0
 10
18.114550308
 20
13.1135881091
 30
0.0
 10
18.1194786931
 20
13.1135892179
 30
0.0
  0
SPLINE
  5
365
100
AcDbEntity
  8
0
100
AcDbSpline
 62
7
  6
BYLAYER
 70
0
 71
3
 72
27
 73
23
 74
0
 42
0.0000001
 43
0.0000001
 44
0.0000000001
 40
0.0
 40
0.0
 40
0.0
 40
0.0
 40
0.0673851939
 40
0.1393989768
 40
0.214928878
 40
0.2927725251
 40
0.3716463223
 40
0.4502420619
 40
0.5272577259
 40
0.6014379094
 40
0.671613114
 40
0.736744412
 40
0.795977248
 40
0.8231933164
 40
0.8487382281
 40
0.8725957277
 40
0.8947819041
 40
0.9343646599
 40
0.9520956506
 40
0.9687267353
 40
0.9845700212
 40
1.0
 40
1.0
 40
1.0
 40
1.0
 10
17.914014466
 20
12.8587021487
 30
0.0
 10
17.9060913387
 20
12.8330628993
 30
0.0
 10
17.8919145103
 20
12.7793249292
 30
0.0
 10
17.8758176242
 20
12.6952027865
 30
0.0
 10
17.8644053236
 20
12.606118628
 30
0.0
 10
17.8579029605
 20
12.513809507
 30
0.0
 10
17.8564422729
 20
12.4200633135
 30
0.0
 10
17.8600511296
 20
12.326704946
 30
0.0
 10
17.8686581441
 20
12.2355484121
 30
0.0
 10
17.882091449
 20
12.14836372
 30
0.0
 10
17.9000839892
 20
12.0668328247
 30
0.0
 10
17.9222807336
 20
11.992529741
 30
0.0
 10
17.9445087013
 20
11.9362914409
 30
0.0
 10
17.9642700609
 20
11.8962816543
 30
0.0
 10
17.979431314
 20
11.8697798578
 30
0.0
 10
17.9952849133
 20
11.8460448473
 30
0.0
 10
18.016436706
 20
11.8192836592
 30
0.0
 10
18.0393920746
 20
11.7970418255
 30
0.0
 10
18.0641585568
 20
11.7809562229
 30
0.0
 10
18.0824005193
 20
11.7725748164
 30
0.0
 10
18.100882342
 20
11.7675028432
 30
0.0
 10
18.1133645683
 20
11.7663669342
 30
0.0
 10
18.1195094204
 20
11.7663683167
 30
0.0
  0
SPLINE
  5
366
100
AcDbEntity
  8
02___PRT_ALL_AXES
100
AcDbSpline
 62
7
  6
BYLAYER
 70
0
 71
3
 72
13
 73
9
 74
0
 42
0.0000001
 43
0.0000001
 44
0.0000000001
 40
0.0
 40
0.0
 40
0.0
 40
0.0
 40
0.1031957305
 40
0.210660594
 40
0.3254562861
 40
0.4488597387
 40
0.717263436
 40
1.0
 40
1.0
 40
1.0
 40
1.0
 10
17.0429102297
 20
13.7619026678
 30
0.0
 10
17.0440514887
 20
13.7595725937
 30
0.0
 10
17.047145362
 20
13.7551550632
 30
0.0
 10
17.0536721902
 20
13.7500531302
 30
0.0
 10
17.0617505043
 20
13.7466175699
 30
0.0
 10
17.0743763152
 20
13.7443674545
 30
0.0
 10
17.0915892437
 20
13.7464287304
 30
0.0
 10
17.1043811054
 20
13.7523787403
 30
0.0
 10
17.1102772373
 20
13.7563495858
 30
0.0
  0
SPLINE
  5
367
100
AcDbEntity
  8
02___PRT_ALL_AXES
100
AcDbSpline
 62
7
  6
BYLAYER
 70
0
 71
3
 72
17
 73
13
 74
0
 42
0.0000001
 43
0.0000001
 44
0.0000000001
 40
0.0
 40
0.0
 40
0.0
 40
0.0
 40
0.050785639
 40
0.1027115068
 40
0.2130418717
 40
0.3354275365
 40
0.4686469943
 40
0.6079206891
 40
0.67794138
 40
0.747024586
 40
0.879108976
 40
1.0
 40
1.0
 40
1.0
 40
1.0
 10
17.0894836983
 20
13.500321112
 30
0.0
 10
17.0903099864
 20
13.4986402562
 30
0.0
 10
17.0923672866
 20
13.4954163704
 30
0.0
 10
17.0979552033
 20
13.4898182469
 30
0.0
 10
17.1075313438
 20
13.4848947388
 30
0.0
 10
17.1210736614
 20
13.4829401515
 30
0.0
 10
17.1356737439
 20
13.4847444879
 30
0.0
 10
17.1476176723
 20
13.4892100619
 30
0.0
 10
17.1565068107
 20
13.494385533
 30
0.0
 10
17.1645240404
 20
13.5003970482
 30
0.0
 10
17.1727215763
 20
13.5091621535
 30
0.0
 10
17.1770817605
 20
13.5176073396
 30
0.0
 10
17.1783981085
 20
13.5218670433
 30
0.0
  0
SPLINE
  5
368
100
AcDbEntity
  8
02___PRT_ALL_AXES
100
AcDbSpline
 62
7
  6
BYLAYER
 70
0
 71
3
 72
11
 73
7
 74
0
 42
0.0000001
 43
0.0000001
 44
0.0000000001
 40
0.0
 40
0.0
 40
0.0
 40
0.0
 40
0.2268632804
 40
0.4650145788
 40
0.722100556
 40
1.0
 40
1.0
 40
1.0
 40
1.0
 10
17.704583085
 20
13.500335133
 30
0.0
 10
17.7058484106
 20
13.497754323
 30
0.0
 10
17.7093888466
 20
13.4928822642
 30
0.0
 10
17.7169625081
 20
13.4875121638
 30
0.0
 10
17.726311019
 20
13.4842464399
 30
0.0
 10
17.7331189667
 20
13.483571061
 30
0.0
 10
17.736639888
 20
13.483571061
 30
0.0
  0
SPLINE
  5
369
100
AcDbEntity
  8
0
100
AcDbSpline
 62
7
  6
BYLAYER
 70
0
 71
3
 72
14
 73
10
 74
0
 42
0.0000001
 43
0.0000001
 44
0.0000000001
 40
0.0
 40
0.0
 40
0.0
 40
0.0
 40
0.1128400439
 40
0.227185611
 40
0.3443963519
 40
0.4655775909
 40
0.5915080615
 40
0.7226024568
 40
1.0
 40
1.0
 40
1.0
 40
1.0
 10
17.0344227379
 20
13.420846948
 30
0.0
 10
17.0421324497
 20
13.4051410111
 30
0.0
 10
17.060374987
 20
13.3747762464
 30
0.0
 10
17.0952688445
 20
13.3340520707
 30
0.0
 10
17.1372098524
 20
13.2985974096
 30
0.0
 10
17.1855204686
 20
13.2689409516
 30
0.0
 10
17.2394705675
 20
13.2454870135
 30
0.0
 10
17.3192527173
 20
13.222479063
 30
0.0
 10
17.3829781108
 20
13.2161511017
 30
0.0
 10
17.4259893997
 20
13.2161511017
 30
0.0
  0
SPLINE
  5
36A
100
AcDbEntity
  8
0
100
AcDbSpline
 62
7
  6
BYLAYER
 70
0
 71
3
 72
21
 73
17
 74
0
 42
0.0000001
 43
0.0000001
 44
0.0000000001
 40
0.0
 40
0.0
 40
0.0
 40
0.0
 40
0.0504635684
 40
0.1017568634
 40
0.1546126906
 40
0.2095936882
 40
0.2670549672
 40
0.3271385304
 40
0.3897889752
 40
0.4547808965
 40
0.5217499483
 40
0.5902244792
 40
0.7292820884
 40
0.7988272788
 40
0.8675175424
 40
1.0
 40
1.0
 40
1.0
 40
1.0
 10
18.1066908367
 20
13.9470957307
 30
0.0
 10
18.1152787822
 20
13.9296006888
 30
0.0
 10
18.1292838644
 20
13.8925896346
 30
0.0
 10
18.1397788094
 20
13.8334885861
 30
0.0
 10
18.1397126002
 20
13.771728276
 30
0.0
 10
18.1291491642
 20
13.7085027855
 30
0.0
 10
18.1083532077
 20
13.6449584755
 30
0.0
 10
18.0777514591
 20
13.5822325801
 30
0.0
 10
18.037929599
 20
13.5214357921
 30
0.0
 10
17.9896271545
 20
13.4636487683
 30
0.0
 10
17.9337157446
 20
13.4098933074
 30
0.0
 10
17.8500175434
 20
13.3445991783
 30
0.0
 10
17.7560801899
 20
13.2916608321
 30
0.0
 10
17.6560051995
 20
13.2531260348
 30
0.0
 10
17.5551001154
 20
13.2253475718
 30
0.0
 10
17.4771545965
 20
13.2161511017
 30
0.0
 10
17.4259893997
 20
13.2161511017
 30
0.0
  0
SPLINE
  5
36B
100
AcDbEntity
  8
02___PRT_ALL_AXES
100
AcDbSpline
 62
7
  6
BYLAYER
 70
0
 71
3
 72
17
 73
13
 74
0
 42
0.0000001
 43
0.0000001
 44
0.0000000001
 40
0.0
 40
0.0
 40
0.0
 40
0.0
 40
0.0328478074
 40
0.0676279268
 40
0.1059114104
 40
0.148752321
 40
0.2498936423
 40
0.3721854089
 40
0.5131913382
 40
0.6685235917
 40
0.8329156281
 40
1.0
 40
1.0
 40
1.0
 40
1.0
 10
18.3285584796
 20
12.9969952253
 30
0.0
 10
18.3278851832
 20
12.9969945055
 30
0.0
 10
18.3264930358
 20
12.9967983633
 30
0.0
 10
18.3244742395
 20
12.9959481562
 30
0.0
 10
18.3225235474
 20
12.9945652025
 30
0.0
 10
18.3198880175
 20
12.9918969035
 30
0.0
 10
18.3169306437
 20
12.9872465932
 30
0.0
 10
18.314063681
 20
12.9803264186
 30
0.0
 10
18.3118037363
 20
12.9720282254
 30
0.0
 10
18.3102490157
 20
12.9626999829
 30
0.0
 10
18.3094738659
 20
12.9527405432
 30
0.0
 10
18.309497085
 20
12.9459373119
 30
0.0
 10
18.3096504461
 20
12.9425159416
 30
0.0
  0
SPLINE
  5
36C
100
AcDbEntity
  8
02___PRT_ALL_AXES
100
AcDbSpline
 62
7
  6
BYLAYER
 70
0
 71
3
 72
13
 73
9
 74
0
 42
0.0000001
 43
0.0000001
 44
0.0000000001
 40
0.0
 40
0.0
 40
0.0
 40
0.0
 40
0.0859159704
 40
0.1775515467
 40
0.2793768109
 40
0.3943308344
 40
0.6682047645
 40
1.0
 40
1.0
 40
1.0
 40
1.0
 10
18.4522156391
 20
12.7472828244
 30
0.0
 10
18.451495565
 20
12.7472837476
 30
0.0
 10
18.4499997503
 20
12.7470602133
 30
0.0
 10
18.4478445467
 20
12.7460870362
 30
0.0
 10
18.4457712419
 20
12.7445141199
 30
0.0
 10
18.442978895
 20
12.7414728673
 30
0.0
 10
18.4399012342
 20
12.7362091135
 30
0.0
 10
18.4381168597
 20
12.7314407673
 30
0.0
 10
18.4372958281
 20
12.7287839082
 30
0.0
  0
SPLINE
  5
36D
100
AcDbEntity
  8
02___PRT_ALL_AXES
100
AcDbSpline
 62
7
  6
BYLAYER
 70
0
 71
3
 72
18
 73
14
 74
0
 42
0.0000001
 43
0.0000001
 44
0.0000000001
 40
0.0
 40
0.0
 40
0.0
 40
0.0
 40
0.0313899212
 40
0.0665355628
 40
0.1078883915
 40
0.1565401863
 40
0.212580093
 40
0.2755217895
 40
0.418020217
 40
0.5739385304
 40
0.730951362
 40
0.876553587
 40
1.0
 40
1.0
 40
1.0
 40
1.0
 10
18.3736308014
 20
12.0286808565
 30
0.0
 10
18.3726356229
 20
12.0286797815
 30
0.0
 10
18.3705109282
 20
12.028229811
 30
0.0
 10
18.3675891744
 20
12.0263547845
 30
0.0
 10
18.3648770513
 20
12.0234181417
 30
0.0
 10
18.362396379
 20
12.0194869548
 30
0.0
 10
18.3601776851
 20
12.0146443635
 30
0.0
 10
18.3575300967
 20
12.0067764784
 30
0.0
 10
18.3553037676
 20
11.9954901507
 30
0.0
 10
18.3543144482
 20
11.9810553398
 30
0.0
 10
18.3550160741
 20
11.9664967627
 30
0.0
 10
18.3573327276
 20
11.9531588691
 30
0.0
 10
18.3600773747
 20
11.9450105244
 30
0.0
 10
18.3618015344
 20
11.9414970562
 30
0.0
  0
SPLINE
  5
36E
100
AcDbEntity
  8
02___PRT_ALL_AXES
100
AcDbSpline
 62
7
  6
BYLAYER
 70
0
 71
3
 72
17
 73
13
 74
0
 42
0.0000001
 43
0.0000001
 44
0.0000000001
 40
0.0
 40
0.0
 40
0.0
 40
0.0
 40
0.0328478074
 40
0.0676279268
 40
0.1059114104
 40
0.148752321
 40
0.2498936423
 40
0.3721854089
 40
0.5131913382
 40
0.6685235917
 40
0.8329156281
 40
1.0
 40
1.0
 40
1.0
 40
1.0
 10
18.2174393387
 20
11.9807398759
 30
0.0
 10
18.2167660423
 20
11.9807391561
 30
0.0
 10
18.2153738949
 20
11.9805430138
 30
0.0
 10
18.2133550986
 20
11.9796928068
 30
0.0
 10
18.2114044065
 20
11.9783098531
 30
0.0
 10
18.2087688766
 20
11.975641554
 30
0.0
 10
18.2058115027
 20
11.9709912438
 30
0.0
 10
18.2029445401
 20
11.9640710691
 30
0.0
 10
18.2006845954
 20
11.9557728759
 30
0.0
 10
18.1991298748
 20
11.9464446334
 30
0.0
 10
18.198354725
 20
11.9364851937
 30
0.0
 10
18.1983779441
 20
11.9296819624
 30
0.0
 10
18.1985313052
 20
11.9262605921
 30
0.0
  0
SPLINE
  5
36F
100
AcDbEntity
  8
0
100
AcDbSpline
 62
7
  6
BYLAYER
 70
0
 71
3
 72
24
 73
20
 74
0
 42
0.0000001
 43
0.0000001
 44
0.0000000001
 40
0.0
 40
0.0
 40
0.0
 40
0.0
 40
0.0154323948
 40
0.0312783084
 40
0.0655589438
 40
0.1051518584
 40
0.1511690561
 40
0.2039161789
 40
0.2631601593
 40
0.3283028828
 40
0.3984889488
 40
0.4726792946
 40
0.5497049292
 40
0.6283104566
 40
0.707193763
 40
0.7850469311
 40
0.8605824112
 40
0.9326108318
 40
1.0
 40
1.0
 40
1.0
 40
1.0
 10
18.2729937684
 20
12.1066456531
 30
0.0
 10
18.2699530948
 20
12.1066465927
 30
0.0
 10
18.2637767549
 20
12.1072119765
 30
0.0
 10
18.2512639381
 20
12.1106444813
 30
0.0
 10
18.2356747883
 20
12.1195627862
 30
0.0
 10
18.2186126428
 20
12.1361339931
 30
0.0
 10
18.2027342829
 20
12.1584310595
 30
0.0
 10
18.1882566944
 20
12.186074313
 30
0.0
 10
18.1754065341
 20
12.2185798223
 30
0.0
 10
18.1644248956
 20
12.2553516771
 30
0.0
 10
18.1555231119
 20
12.2956951556
 30
0.0
 10
18.1488770974
 20
12.3388367088
 30
0.0
 10
18.1446189641
 20
12.3839427449
 30
0.0
 10
18.1428338825
 20
12.4301380945
 30
0.0
 10
18.1435574817
 20
12.476525187
 30
0.0
 10
18.1467760253
 20
12.5222003488
 30
0.0
 10
18.1524228256
 20
12.5662810521
 30
0.0
 10
18.1603887752
 20
12.6079054064
 30
0.0
 10
18.1674033604
 20
12.6344961894
 30
0.0
 10
18.1713236002
 20
12.6471820901
 30
0.0
  0
SPLINE
  5
370
100
AcDbEntity
  8
02___PRT_ALL_AXES
100
AcDbSpline
 62
7
  6
BYLAYER
 70
0
 71
3
 72
13
 73
9
 74
0
 42
0.0000001
 43
0.0000001
 44
0.0000000001
 40
0.0
 40
0.0
 40
0.0
 40
0.0
 40
0.0859159704
 40
0.1775515467
 40
0.2793768109
 40
0.3943308344
 40
0.6682047645
 40
1.0
 40
1.0
 40
1.0
 40
1.0
 10
18.0938061118
 20
12.2304521841
 30
0.0
 10
18.0930860377
 20
12.2304531073
 30
0.0
 10
18.091590223
 20
12.2302295729
 30
0.0
 10
18.0894350194
 20
12.2292563958
 30
0.0
 10
18.0873617145
 20
12.2276834795
 30
0.0
 10
18.0845693677
 20
12.2246422269
 30
0.0
 10
18.0814917069
 20
12.2193784732
 30
0.0
 10
18.0797073324
 20
12.214610127
 30
0.0
 10
18.0788863008
 20
12.2119532678
 30
0.0
  0
SPLINE
  5
371
100
AcDbEntity
  8
02___PRT_ALL_AXES
100
AcDbSpline
 62
7
  6
BYLAYER
 70
0
 71
3
 72
18
 73
14
 74
0
 42
0.0000001
 43
0.0000001
 44
0.0000000001
 40
0.0
 40
0.0
 40
0.0
 40
0.0
 40
0.0313899212
 40
0.0665355628
 40
0.1078883915
 40
0.1565401863
 40
0.212580093
 40
0.2755217895
 40
0.418020217
 40
0.5739385304
 40
0.730951362
 40
0.876553587
 40
1.0
 40
1.0
 40
1.0
 40
1.0
 10
18.1723674702
 20
12.9490523142
 30
0.0
 10
18.1713722917
 20
12.9490512392
 30
0.0
 10
18.169247597
 20
12.9486012686
 30
0.0
 10
18.1663258432
 20
12.9467262421
 30
0.0
 10
18.16361372
 20
12.9437895994
 30
0.0
 10
18.1611330478
 20
12.9398584124
 30
0.0
 10
18.1589143539
 20
12.9350158211
 30
0.0
 10
18.1562667655
 20
12.927147936
 30
0.0
 10
18.1540404364
 20
12.9158616083
 30
0.0
 10
18.153051117
 20
12.9014267974
 30
0.0
 10
18.1537527429
 20
12.8868682203
 30
0.0
 10
18.1560693964
 20
12.8735303267
 30
0.0
 10
18.1588140434
 20
12.8653819821
 30
0.0
 10
18.1605382032
 20
12.8618685139
 30
0.0
  0
SPLINE
  5
372
100
AcDbEntity
  8
0
100
AcDbSpline
 62
7
  6
BYLAYER
 70
0
 71
3
 72
27
 73
23
 74
0
 42
0.0000001
 43
0.0000001
 44
0.0000000001
 40
0.0
 40
0.0
 40
0.0
 40
0.0
 40
0.0154299788
 40
0.0312732647
 40
0.0479043494
 40
0.0656353401
 40
0.1052180959
 40
0.1274042723
 40
0.1512617719
 40
0.1768066836
 40
0.204022752
 40
0.263255588
 40
0.328386886
 40
0.3985620906
 40
0.4727422741
 40
0.5497579381
 40
0.6283536777
 40
0.7072274749
 40
0.785071122
 40
0.8606010232
 40
0.9326148061
 40
1.0
 40
1.0
 40
1.0
 40
1.0
 10
18.2729888587
 20
13.1135892179
 30
0.0
 10
18.2791337108
 20
13.1135906004
 30
0.0
 10
18.2916159371
 20
13.1124546914
 30
0.0
 10
18.3100977599
 20
13.1073827182
 30
0.0
 10
18.3283397224
 20
13.0990013117
 30
0.0
 10
18.3531062046
 20
13.0829157091
 30
0.0
 10
18.3760615731
 20
13.0606738754
 30
0.0
 10
18.3972133658
 20
13.0339126873
 30
0.0
 10
18.4130669652
 20
13.0101776768
 30
0.0
 10
18.4282282183
 20
12.9836758803
 30
0.0
 10
18.4479895778
 20
12.9436660937
 30
0.0
 10
18.4702175455
 20
12.8874277936
 30
0.0
 10
18.49241429
 20
12.8131247098
 30
0.0
 10
18.5104068301
 20
12.7315938146
 30
0.0
 10
18.523840135
 20
12.6444091225
 30
0.0
 10
18.5324471495
 20
12.5532525886
 30
0.0
 10
18.5360560062
 20
12.4598942211
 30
0.0
 10
18.5345953187
 20
12.3661480276
 30
0.0
 10
18.5280929555
 20
12.2738389066
 30
0.0
 10
18.5166806549
 20
12.1847547481
 30
0.0
 10
18.5005837688
 20
12.1006326054
 30
0.0
 10
18.4864069404
 20
12.0468946353
 30
0.0
 10
18.4784838131
 20
12.0212553859
 30
0.0
  0
SPLINE
  5
373
100
AcDbEntity
  8
0
100
AcDbSpline
 62
7
  6
BYLAYER
 70
0
 71
3
 72
16
 73
12
 74
0
 42
0.0000001
 43
0.0000001
 44
0.0000000001
 40
0.0
 40
0.0
 40
0.0
 40
0.0
 40
0.12344527
 40
0.2485610636
 40
0.3749890836
 40
0.5019565154
 40
0.5654122924
 40
0.6286451608
 40
0.7540301131
 40
0.8777747129
 40
1.0
 40
1.0
 40
1.0
 40
1.0
 10
17.860503368
 20
11.4887702747
 30
0.0
 10
17.8445023005
 20
11.4785018908
 30
0.0
 10
17.8107786089
 20
11.460052084
 30
0.0
 10
17.7562597596
 20
11.4402894625
 30
0.0
 10
17.6986798985
 20
11.4295748351
 30
0.0
 10
17.6496280759
 20
11.4288957221
 30
0.0
 10
17.6107716188
 20
11.4333174638
 30
0.0
 10
17.5726677487
 20
11.4409614353
 30
0.0
 10
17.5267971507
 20
11.4562045497
 30
0.0
 10
17.4757980504
 20
11.4825287572
 30
0.0
 10
17.4448004469
 20
11.5045349817
 30
0.0
 10
17.4301725714
 20
11.5163835975
 30
0.0
  0
SPLINE
  5
374
100
AcDbEntity
  8
0
100
AcDbSpline
 62
7
  6
BYLAYER
 70
0
 71
3
 72
9
 73
5
 74
0
 42
0.0000001
 43
0.0000001
 44
0.0000000001
 40
0.0
 40
0.0
 40
0.0
 40
0.0
 40
0.4989443459
 40
1.0
 40
1.0
 40
1.0
 40
1.0
 10
17.4293179583
 20
11.5170775776
 30
0.0
 10
17.4130258064
 20
11.5303406943
 30
0.0
 10
17.3822101572
 20
11.5592386151
 30
0.0
 10
17.3551513369
 20
11.5916208178
 30
0.0
 10
17.3424769004
 20
11.6084863503
 30
0.0
  0
SPLINE
  5
375
100
AcDbEntity
  8
0
100
AcDbSpline
 62
7
  6
BYLAYER
 70
0
 71
3
 72
17
 73
13
 74
0
 42
0.0000001
 43
0.0000001
 44
0.0000000001
 40
0.0
 40
0.0
 40
0.0
 40
0.0
 40
0.0489512183
 40
0.0980095048
 40
0.1477486326
 40
0.1986552377
 40
0.3052761093
 40
0.4206846283
 40
0.5469749244
 40
0.6853841388
 40
0.8364032135
 40
1.0
 40
1.0
 40
1.0
 40
1.0
 10
17.8654739235
 20
11.4887070888
 30
0.0
 10
17.8722989083
 20
11.4883835097
 30
0.0
 10
17.8860207674
 20
11.4886016633
 30
0.0
 10
17.9064859921
 20
11.4915295722
 30
0.0
 10
17.9267031041
 20
11.497011769
 30
0.0
 10
17.9536147137
 20
11.5077785454
 30
0.0
 10
17.986444948
 20
11.5276498823
 30
0.0
 10
18.0230174531
 20
11.5599820956
 30
0.0
 10
18.0574376945
 20
11.6005511187
 30
0.0
 10
18.0896467186
 20
11.6489443502
 30
0.0
 10
18.1195590219
 20
11.7047422853
 30
0.0
 10
18.1371812501
 20
11.7450158406
 30
0.0
 10
18.1456443217
 20
11.7662246226
 30
0.0
  0
SPLINE
  5
376
100
AcDbEntity
  8
0
100
AcDbSpline
 62
7
  6
BYLAYER
 70
0
 71
3
 72
16
 73
12
 74
0
 42
0.0000001
 43
0.0000001
 44
0.0000000001
 40
0.0
 40
0.0
 40
0.0
 40
0.0
 40
0.0426523551
 40
0.0860479509
 40
0.1776015256
 40
0.2793830796
 40
0.3942770029
 40
0.5237457296
 40
0.6681758326
 40
0.8272683187
 40
1.0
 40
1.0
 40
1.0
 40
1.0
 10
18.2730195861
 20
11.7663683167
 30
0.0
 10
18.2779479711
 20
11.7663694255
 30
0.0
 10
18.2879054071
 20
11.7670972713
 30
0.0
 10
18.3080099605
 20
11.771498227
 30
0.0
 10
18.3332394589
 20
11.7828755059
 30
0.0
 10
18.3617558032
 20
11.8045858465
 30
0.0
 10
18.3889368261
 20
11.8341488174
 30
0.0
 10
18.4145546903
 20
11.8711875081
 30
0.0
 10
18.4383762959
 20
11.915275894
 30
0.0
 10
18.4601227349
 20
11.9658908886
 30
0.0
 10
18.4725910408
 20
12.0021863675
 30
0.0
 10
18.4784838131
 20
12.0212553859
 30
0.0
  0
SPLINE
  5
377
100
AcDbEntity
  8
0
100
AcDbSpline
 62
7
  6
BYLAYER
 70
0
 71
3
 72
15
 73
11
 74
0
 42
0.0000001
 43
0.0000001
 44
0.0000000001
 40
0.0
 40
0.0
 40
0.0
 40
0.0
 40
0.159657913
 40
0.3085973289
 40
0.4467080705
 40
0.5742254965
 40
0.6918422533
 40
0.8007788098
 40
0.902832911
 40
1.0
 40
1.0
 40
1.0
 40
1.0
 10
18.1455461371
 20
13.1139785323
 30
0.0
 10
18.1380582594
 20
13.1327272605
 30
0.0
 10
18.1225276363
 20
13.1685595655
 30
0.0
 10
18.0965263418
 20
13.2187616403
 30
0.0
 10
18.0687223504
 20
13.263281276
 30
0.0
 10
18.0391993222
 20
13.3018212122
 30
0.0
 10
18.0080193602
 20
13.3341128971
 30
0.0
 10
17.9751690947
 20
13.3598247447
 30
0.0
 10
17.9407479058
 20
13.3785085398
 30
0.0
 10
17.9164923787
 20
13.3860674862
 30
0.0
 10
17.904430478
 20
13.3884072833
 30
0.0
  0
SPLINE
  5
378
100
AcDbEntity
  8
02___PRT_ALL_AXES
100
AcDbSpline
 62
7
  6
BYLAYER
 70
0
 71
3
 72
14
 73
10
 74
0
 42
0.0000001
 43
0.0000001
 44
0.0000000001
 40
0.0
 40
0.0
 40
0.0
 40
0.0
 40
0.2699413971
 40
0.409422653
 40
0.5451038101
 40
0.6729232389
 40
0.7905540687
 40
0.898363335
 40
1.0
 40
1.0
 40
1.0
 40
1.0
 10
17.7603085952
 20
13.5601630255
 30
0.0
 10
17.7518015403
 20
13.5601630255
 30
0.0
 10
17.7387731932
 20
13.5570824423
 30
0.0
 10
17.7237634243
 20
13.548613192
 30
0.0
 10
17.7140556109
 20
13.5402737424
 30
0.0
 10
17.7067661956
 20
13.5305974545
 30
0.0
 10
17.7024156102
 20
13.5201976937
 30
0.0
 10
17.7014076267
 20
13.50975885
 30
0.0
 10
17.7031730508
 20
13.5032110962
 30
0.0
 10
17.704583085
 20
13.500335133
 30
0.0
  0
SPLINE
  5
379
100
AcDbEntity
  8
02___PRT_ALL_AXES
100
AcDbSpline
 62
7
  6
BYLAYER
 70
0
 71
3
 72
17
 73
13
 74
0
 42
0.0000001
 43
0.0000001
 44
0.0000000001
 40
0.0
 40
0.0
 40
0.0
 40
0.0
 40
0.050785639
 40
0.1027115068
 40
0.2130418717
 40
0.3354275365
 40
0.4686469943
 40
0.6079206891
 40
0.67794138
 40
0.747024586
 40
0.879108976
 40
1.0
 40
1.0
 40
1.0
 40
1.0
 10
17.1772532216
 20
13.5434129746
 30
0.0
 10
17.1764269334
 20
13.5450938303
 30
0.0
 10
17.1743696333
 20
13.5483177162
 30
0.0
 10
17.1687817165
 20
13.5539158396
 30
0.0
 10
17.159205576
 20
13.5588393477
 30
0.0
 10
17.1456632585
 20
13.5607939351
 30
0.0
 10
17.1310631759
 20
13.5589895986
 30
0.0
 10
17.1191192476
 20
13.5545240247
 30
0.0
 10
17.1102301092
 20
13.5493485536
 30
0.0
 10
17.1022128794
 20
13.5433370383
 30
0.0
 10
17.0940153436
 20
13.534571933
 30
0.0
 10
17.0896551593
 20
13.5261267469
 30
0.0
 10
17.0883388113
 20
13.5218670433
 30
0.0
  0
SPLINE
  5
37A
100
AcDbEntity
  8
02___PRT_ALL_AXES
100
AcDbSpline
 62
7
  6
BYLAYER
 70
0
 71
3
 72
15
 73
11
 74
0
 42
0.0000001
 43
0.0000001
 44
0.0000000001
 40
0.0
 40
0.0
 40
0.0
 40
0.0
 40
0.1734563934
 40
0.3392725583
 40
0.4926163165
 40
0.6299720811
 40
0.7487638761
 40
0.8480145523
 40
0.9296139082
 40
1.0
 40
1.0
 40
1.0
 40
1.0
 10
18.3474771396
 20
12.9536969425
 30
0.0
 10
18.3473469222
 20
12.956601994
 30
0.0
 10
18.34689138
 20
12.9622775003
 30
0.0
 10
18.3456147189
 20
12.970445229
 30
0.0
 10
18.3437913694
 20
12.9778896084
 30
0.0
 10
18.3414834263
 20
12.9843704305
 30
0.0
 10
18.3387652798
 20
12.9896977645
 30
0.0
 10
18.3356971259
 20
12.993721783
 30
0.0
 10
18.3323052666
 20
12.9963389679
 30
0.0
 10
18.3297384904
 20
12.9969964869
 30
0.0
 10
18.3285584796
 20
12.9969952253
 30
0.0
  0
SPLINE
  5
37B
100
AcDbEntity
  8
02___PRT_ALL_AXES
100
AcDbSpline
 62
7
  6
BYLAYER
 70
0
 71
3
 72
13
 73
9
 74
0
 42
0.0000001
 43
0.0000001
 44
0.0000000001
 40
0.0
 40
0.0
 40
0.0
 40
0.0
 40
0.2850507291
 40
0.5475858214
 40
0.6688628205
 40
0.7835803219
 40
0.893194549
 40
1.0
 40
1.0
 40
1.0
 40
1.0
 10
17.0633320009
 20
13.8105082832
 30
0.0
 10
17.0588247163
 20
13.8074727795
 30
0.0
 10
17.0508334908
 20
13.800554966
 30
0.0
 10
17.0437461848
 20
13.7896834562
 30
0.0
 10
17.040796014
 20
13.7805955764
 30
0.0
 10
17.0400147619
 20
13.7740050862
 30
0.0
 10
17.0406433323
 20
13.7676717872
 30
0.0
 10
17.0420146103
 20
13.763731227
 30
0.0
 10
17.0429102297
 20
13.7619026678
 30
0.0
  0
SPLINE
  5
37C
100
AcDbEntity
  8
02___PRT_ALL_AXES
100
AcDbSpline
 62
7
  6
BYLAYER
 70
0
 71
3
 72
10
 73
6
 74
0
 42
0.0000001
 43
0.0000001
 44
0.0000000001
 40
0.0
 40
0.0
 40
0.0
 40
0.0
 40
0.5161344746
 40
0.7604943016
 40
1.0
 40
1.0
 40
1.0
 40
1.0
 10
17.8651020685
 20
14.0449908257
 30
0.0
 10
17.8639830053
 20
14.0413695357
 30
0.0
 10
17.8631447552
 20
14.0356887203
 30
0.0
 10
17.8642356852
 20
14.0283881926
 30
0.0
 10
17.8654710272
 20
14.0250233069
 30
0.0
 10
17.8662469555
 20
14.0234448945
 30
0.0
  0
SPLINE
  5
37D
100
AcDbEntity
  8
0
100
AcDbSpline
 62
7
  6
BYLAYER
 70
0
 71
3
 72
20
 73
16
 74
0
 42
0.0000001
 43
0.0000001
 44
0.0000000001
 40
0.0
 40
0.0
 40
0.0
 40
0.0
 40
0.0507342285
 40
0.102606072
 40
0.1565728369
 40
0.2132903645
 40
0.3355485285
 40
0.4011151601
 40
0.4689001325
 40
0.6080357613
 40
0.6779864759
 40
0.7469984577
 40
0.8143011978
 40
0.8792335467
 40
1.0
 40
1.0
 40
1.0
 40
1.0
 10
17.7711158828
 20
13.9058103024
 30
0.0
 10
17.7664265874
 20
13.9153642362
 30
0.0
 10
17.7547476522
 20
13.9336891883
 30
0.0
 10
17.7313706633
 20
13.9570886933
 30
0.0
 10
17.7027173763
 20
13.9759818807
 30
0.0
 10
17.6574713914
 20
13.9950226222
 30
0.0
 10
17.6057919026
 20
14.0025736497
 30
0.0
 10
17.5521640224
 20
13.9997211726
 30
0.0
 10
17.4957832805
 20
13.989537788
 30
0.0
 10
17.4407988323
 20
13.9689896596
 30
0.0
 10
17.3903034485
 20
13.9395877608
 30
0.0
 10
17.3555950808
 20
13.9135800979
 30
0.0
 10
17.3250157388
 20
13.8842927436
 30
0.0
 10
17.2916215374
 20
13.8429596891
 30
0.0
 10
17.2733794966
 20
13.8076332015
 30
0.0
 10
17.2658998124
 20
13.7834289345
 30
0.0
  0
SPLINE
  5
37E
100
AcDbEntity
  8
0
100
AcDbSpline
 62
7
  6
BYLAYER
 70
0
 71
3
 72
19
 73
15
 74
0
 42
0.0000001
 43
0.0000001
 44
0.0000000001
 40
0.0
 40
0.0
 40
0.0
 40
0.0
 40
0.051357095
 40
0.104707062
 40
0.1605838948
 40
0.2192514415
 40
0.3444889743
 40
0.4106901107
 40
0.4785125003
 40
0.6161958037
 40
0.7521514158
 40
0.8179169399
 40
0.8814046343
 40
1.0
 40
1.0
 40
1.0
 40
1.0
 10
17.7671564607
 20
13.9027551907
 30
0.0
 10
17.7605229454
 20
13.9104078429
 30
0.0
 10
17.7453893873
 20
13.9246778376
 30
0.0
 10
17.7185891307
 20
13.9418402138
 30
0.0
 10
17.687946631
 20
13.9547726726
 30
0.0
 10
17.6419298693
 20
13.9662778
 30
0.0
 10
17.5919779031
 20
13.9678719436
 30
0.0
 10
17.5413007919
 20
13.9606291736
 30
0.0
 10
17.4893376032
 20
13.9471390798
 30
0.0
 10
17.4272523945
 20
13.9197366396
 30
0.0
 10
17.3725320361
 20
13.8802326416
 30
0.0
 10
17.3358701225
 20
13.8427621972
 30
0.0
 10
17.3060885737
 20
13.803935086
 30
0.0
 10
17.2897514656
 20
13.7712392563
 30
0.0
 10
17.2828465828
 20
13.7488950474
 30
0.0
  0
SPLINE
  5
37F
100
AcDbEntity
  8
0
100
AcDbSpline
 62
7
  6
BYLAYER
 70
0
 71
3
 72
16
 73
12
 74
0
 42
0.0000001
 43
0.0000001
 44
0.0000000001
 40
0.0
 40
0.0
 40
0.0
 40
0.0
 40
0.1727316813
 40
0.3318241674
 40
0.4762542704
 40
0.6057229971
 40
0.7206169204
 40
0.8223984744
 40
0.9139520491
 40
0.9573476449
 40
1.0
 40
1.0
 40
1.0
 40
1.0
 10
18.0675246317
 20
12.8587021487
 30
0.0
 10
18.0734174041
 20
12.8777711671
 30
0.0
 10
18.0858857099
 20
12.914066646
 30
0.0
 10
18.1076321489
 20
12.9646816406
 30
0.0
 10
18.1314537545
 20
13.0087700265
 30
0.0
 10
18.1570716188
 20
13.0458087172
 30
0.0
 10
18.1842526416
 20
13.0753716881
 30
0.0
 10
18.2127689859
 20
13.0970820287
 30
0.0
 10
18.2379984843
 20
13.1084593076
 30
0.0
 10
18.2581030377
 20
13.1128602633
 30
0.0
 10
18.2680604737
 20
13.1135881091
 30
0.0
 10
18.2729888587
 20
13.1135892179
 30
0.0
  0
SPLINE
  5
380
100
AcDbEntity
  8
02___PRT_ALL_AXES
100
AcDbSpline
 62
7
  6
BYLAYER
 70
0
 71
3
 72
11
 73
7
 74
0
 42
0.0000001
 43
0.0000001
 44
0.0000000001
 40
0.0
 40
0.0
 40
0.0
 40
0.0
 40
0.2268632804
 40
0.4650145788
 40
0.722100556
 40
1.0
 40
1.0
 40
1.0
 40
1.0
 10
17.7923653983
 20
13.5433989536
 30
0.0
 10
17.7911000726
 20
13.5459797636
 30
0.0
 10
17.7875596367
 20
13.5508518223
 30
0.0
 10
17.7799859752
 20
13.5562219227
 30
0.0
 10
17.7706374643
 20
13.5594876466
 30
0.0
 10
17.7638295165
 20
13.5601630255
 30
0.0
 10
17.7603085952
 20
13.5601630255
 30
0.0
  0
SPLINE
  5
381
100
AcDbEntity
  8
0
100
AcDbSpline
 62
7
  6
BYLAYER
 70
0
 71
3
 72
15
 73
11
 74
0
 42
0.0000001
 43
0.0000001
 44
0.0000000001
 40
0.0
 40
0.0
 40
0.0
 40
0.0
 40
0.172758025
 40
0.3319117447
 40
0.4763755511
 40
0.6058615397
 40
0.7207814068
 40
0.8225807492
 40
0.9141477816
 40
1.0
 40
1.0
 40
1.0
 40
1.0
 10
18.3746848446
 20
12.2327754445
 30
0.0
 10
18.3717687167
 20
12.2233388511
 30
0.0
 10
18.3655972558
 20
12.2053757109
 30
0.0
 10
18.3548348809
 20
12.1803254369
 30
0.0
 10
18.3430450679
 20
12.1585053634
 30
0.0
 10
18.3303634197
 20
12.1401772995
 30
0.0
 10
18.3169149048
 20
12.1255475747
 30
0.0
 10
18.3027909575
 20
12.1148059096
 30
0.0
 10
18.2880967126
 20
12.1081698506
 30
0.0
 10
18.2779020989
 20
12.1066441364
 30
0.0
 10
18.2729937684
 20
12.1066456531
 30
0.0
  0
SPLINE
  5
382
100
AcDbEntity
  8
02___PRT_ALL_AXES
100
AcDbSpline
 62
7
  6
BYLAYER
 70
0
 71
3
 72
13
 73
9
 74
0
 42
0.0000001
 43
0.0000001
 44
0.0000000001
 40
0.0
 40
0.0
 40
0.0
 40
0.0
 40
0.1031957305
 40
0.210660594
 40
0.3254562861
 40
0.4488597387
 40
0.717263436
 40
1.0
 40
1.0
 40
1.0
 40
1.0
 10
18.0005899474
 20
13.8049552012
 30
0.0
 10
17.9994486884
 20
13.8072852753
 30
0.0
 10
17.9963548151
 20
13.8117028058
 30
0.0
 10
17.9898279868
 20
13.8168047389
 30
0.0
 10
17.9817496728
 20
13.8202402991
 30
0.0
 10
17.9691238619
 20
13.8224904146
 30
0.0
 10
17.9519109333
 20
13.8204291386
 30
0.0
 10
17.9391190717
 20
13.8144791287
 30
0.0
 10
17.9332229397
 20
13.8105082832
 30
0.0
  0
SPLINE
  5
383
100
AcDbEntity
  8
0
100
AcDbSpline
 62
7
  6
BYLAYER
 70
0
 71
3
 72
14
 73
10
 74
0
 42
0.0000001
 43
0.0000001
 44
0.0000000001
 40
0.0
 40
0.0
 40
0.0
 40
0.0
 40
0.1128400439
 40
0.227185611
 40
0.3443963519
 40
0.4655775909
 40
0.5915080615
 40
0.7226024568
 40
1.0
 40
1.0
 40
1.0
 40
1.0
 10
16.9856160392
 20
13.5203045432
 30
0.0
 10
16.9933257509
 20
13.5045986062
 30
0.0
 10
17.0115682882
 20
13.4742338415
 30
0.0
 10
17.0464621457
 20
13.4335096659
 30
0.0
 10
17.0884031536
 20
13.3980550047
 30
0.0
 10
17.1367137698
 20
13.3683985467
 30
0.0
 10
17.1906638687
 20
13.3449446086
 30
0.0
 10
17.2704460186
 20
13.3219366581
 30
0.0
 10
17.3341714121
 20
13.3156086968
 30
0.0
 10
17.3771827009
 20
13.3156086968
 30
0.0
  0
SPLINE
  5
384
100
AcDbEntity
  8
02___PRT_ALL_AXES
100
AcDbSpline
 62
7
  6
BYLAYER
 70
0
 71
3
 72
11
 73
7
 74
0
 42
0.0000001
 43
0.0000001
 44
0.0000000001
 40
0.0
 40
0.0
 40
0.0
 40
0.0
 40
0.3156806228
 40
0.5821591739
 40
0.8046012074
 40
1.0
 40
1.0
 40
1.0
 40
1.0
 10
18.1842069104
 20
12.9384604784
 30
0.0
 10
18.1834356128
 20
12.9400322175
 30
0.0
 10
18.1818303888
 20
12.942850251
 30
0.0
 10
18.178942516
 20
12.9462948861
 30
0.0
 10
18.1757864444
 20
12.9485120335
 30
0.0
 10
18.1734511666
 20
12.9490534848
 30
0.0
 10
18.1723674702
 20
12.9490523142
 30
0.0
  0
SPLINE
  5
385
100
AcDbEntity
  8
0
100
AcDbSpline
 62
7
  6
BYLAYER
 70
0
 71
3
 72
13
 73
9
 74
0
 42
0.0000001
 43
0.0000001
 44
0.0000000001
 40
0.0
 40
0.0
 40
0.0
 40
0.0
 40
0.1166288154
 40
0.2342060196
 40
0.3536260737
 40
0.4756760626
 40
0.7297195251
 40
1.0
 40
1.0
 40
1.0
 40
1.0
 10
18.0578841379
 20
14.0465533259
 30
0.0
 10
18.0638780547
 20
14.0343427425
 30
0.0
 10
18.0743083936
 20
14.0089968292
 30
0.0
 10
18.0849392516
 20
13.9690347372
 30
0.0
 10
18.090485365
 20
13.9274138815
 30
0.0
 10
18.0910705483
 20
13.8694997425
 30
0.0
 10
18.0784112234
 20
13.7945129434
 30
0.0
 10
18.0558802504
 20
13.7372019459
 30
0.0
 10
18.0418157741
 20
13.7089906722
 30
0.0
  0
SPLINE
  5
386
100
AcDbEntity
  8
0
100
AcDbSpline
 62
7
  6
BYLAYER
 70
0
 71
3
 72
10
 73
6
 74
0
 42
0.0000001
 43
0.0000001
 44
0.0000000001
 40
0.0
 40
0.0
 40
0.0
 40
0.0
 40
0.4820600566
 40
0.7377575024
 40
1.0
 40
1.0
 40
1.0
 40
1.0
 10
18.0418157741
 20
13.7089906722
 30
0.0
 10
18.0171000021
 20
13.6594144634
 30
0.0
 10
17.9673237637
 20
13.5890984998
 30
0.0
 10
17.8849213816
 20
13.5088417108
 30
0.0
 10
17.837580712
 20
13.4724695737
 30
0.0
 10
17.8126913041
 20
13.4554795792
 30
0.0
  0
SPLINE
  5
387
100
AcDbEntity
  8
0
100
AcDbSpline
 62
7
  6
BYLAYER
 70
0
 71
3
 72
11
 73
7
 74
0
 42
0.0000001
 43
0.0000001
 44
0.0000000001
 40
0.0
 40
0.0
 40
0.0
 40
0.0
 40
0.254658356
 40
0.5092765917
 40
0.7591201929
 40
1.0
 40
1.0
 40
1.0
 40
1.0
 10
17.8126913041
 20
13.4554795792
 30
0.0
 10
17.7801828215
 20
13.433288656
 30
0.0
 10
17.7118340521
 20
13.3936057731
 30
0.0
 10
17.6026800155
 20
13.3495286726
 30
0.0
 10
17.4903683166
 20
13.3221450811
 30
0.0
 10
17.4144134357
 20
13.3156086968
 30
0.0
 10
17.3771827009
 20
13.3156086968
 30
0.0
  0
SPLINE
  5
388
100
AcDbEntity
  8
02___PRT_ALL_AXES
100
AcDbSpline
 62
7
  6
BYLAYER
 70
0
 71
3
 72
17
 73
13
 74
0
 42
0.0000001
 43
0.0000001
 44
0.0000000001
 40
0.0
 40
0.0
 40
0.0
 40
0.0
 40
0.0328478074
 40
0.0676279268
 40
0.1059114104
 40
0.148752321
 40
0.2498936423
 40
0.3721854089
 40
0.5131913382
 40
0.6685235917
 40
0.8329156281
 40
1.0
 40
1.0
 40
1.0
 40
1.0
 10
18.3285691061
 20
12.8992176587
 30
0.0
 10
18.3292424025
 20
12.8992183785
 30
0.0
 10
18.3306345499
 20
12.8994145208
 30
0.0
 10
18.3326533462
 20
12.9002647278
 30
0.0
 10
18.3346040384
 20
12.9016476815
 30
0.0
 10
18.3372395682
 20
12.9043159806
 30
0.0
 10
18.3401969421
 20
12.9089662908
 30
0.0
 10
18.3430639047
 20
12.9158864655
 30
0.0
 10
18.3453238494
 20
12.9241846587
 30
0.0
 10
18.34687857
 20
12.9335129012
 30
0.0
 10
18.3476537198
 20
12.9434723409
 30
0.0
 10
18.3476305007
 20
12.9502755722
 30
0.0
 10
18.3474771396
 20
12.9536969425
 30
0.0
  0
SPLINE
  5
389
100
AcDbEntity
  8
02___PRT_ALL_AXES
100
AcDbSpline
 62
7
  6
BYLAYER
 70
0
 71
3
 72
19
 73
15
 74
0
 42
0.0000001
 43
0.0000001
 44
0.0000000001
 40
0.0
 40
0.0
 40
0.0
 40
0.0
 40
0.0533440231
 40
0.1095469655
 40
0.1691887665
 40
0.2324853322
 40
0.3679987391
 40
0.5101117299
 40
0.6498836108
 40
0.779221135
 40
0.8387828776
 40
0.8948654775
 40
0.9481769832
 40
1.0
 40
1.0
 40
1.0
 40
1.0
 10
17.4476499129
 20
13.4406039093
 30
0.0
 10
17.4461814694
 20
13.4422979893
 30
0.0
 10
17.4427092347
 20
13.4454006201
 30
0.0
 10
17.4364267813
 20
13.4488402267
 30
0.0
 10
17.4291827708
 20
13.4510598495
 30
0.0
 10
17.4183493676
 20
13.4523430709
 30
0.0
 10
17.4039042508
 20
13.4505384844
 30
0.0
 10
17.3875256177
 20
13.4437354437
 30
0.0
 10
17.3736416982
 20
13.4331132358
 30
0.0
 10
17.3653398468
 20
13.4217373787
 30
0.0
 10
17.361728551
 20
13.4120327546
 30
0.0
 10
17.3606393123
 20
13.404958352
 30
0.0
 10
17.3611638446
 20
13.3981401544
 30
0.0
 10
17.36260839
 20
13.3939039448
 30
0.0
 10
17.363571698
 20
13.3919505555
 30
0.0
  0
SPLINE
  5
38A
100
AcDbEntity
  8
0
100
AcDbSpline
 62
7
  6
BYLAYER
 70
0
 71
3
 72
9
 73
5
 74
0
 42
0.0000001
 43
0.0000001
 44
0.0000000001
 40
0.0
 40
0.0
 40
0.0
 40
0.0
 40
0.514090962
 40
1.0
 40
1.0
 40
1.0
 40
1.0
 10
17.2828465828
 20
13.7488950474
 30
0.0
 10
17.2785915672
 20
13.7351258118
 30
0.0
 10
17.2730135892
 20
13.7073896047
 30
0.0
 10
17.2742019568
 20
13.6790370767
 30
0.0
 10
17.2765901877
 20
13.6656264073
 30
0.0
  0
SPLINE
  5
38B
100
AcDbEntity
  8
02___PRT_ALL_AXES
100
AcDbSpline
 62
7
  6
BYLAYER
 70
0
 71
3
 72
13
 73
9
 74
0
 42
0.0000001
 43
0.0000001
 44
0.0000000001
 40
0.0
 40
0.0
 40
0.0
 40
0.0
 40
0.0859159704
 40
0.1775515467
 40
0.2793768109
 40
0.3943308344
 40
0.6682047645
 40
1.0
 40
1.0
 40
1.0
 40
1.0
 10
18.452202333
 20
12.6495053505
 30
0.0
 10
18.4529224072
 20
12.6495044273
 30
0.0
 10
18.4544182218
 20
12.6497279616
 30
0.0
 10
18.4565734254
 20
12.6507011388
 30
0.0
 10
18.4586467303
 20
12.6522740551
 30
0.0
 10
18.4614390771
 20
12.6553153077
 30
0.0
 10
18.4645167379
 20
12.6605790614
 30
0.0
 10
18.4663011124
 20
12.6653474076
 30
0.0
 10
18.467122144
 20
12.6680042668
 30
0.0
  0
SPLINE
  5
38C
100
AcDbEntity
  8
02___PRT_ALL_AXES
100
AcDbSpline
 62
7
  6
BYLAYER
 70
0
 71
3
 72
13
 73
9
 74
0
 42
0.0000001
 43
0.0000001
 44
0.0000000001
 40
0.0
 40
0.0
 40
0.0
 40
0.0
 40
0.2850507291
 40
0.5475858214
 40
0.6688628205
 40
0.7835803219
 40
0.893194549
 40
1.0
 40
1.0
 40
1.0
 40
1.0
 10
17.9332229397
 20
13.8105082832
 30
0.0
 10
17.9287156551
 20
13.8074727795
 30
0.0
 10
17.9207244296
 20
13.800554966
 30
0.0
 10
17.9136371235
 20
13.7896834562
 30
0.0
 10
17.9106869528
 20
13.7805955764
 30
0.0
 10
17.9099057007
 20
13.7740050862
 30
0.0
 10
17.9105342711
 20
13.7676717872
 30
0.0
 10
17.9119055491
 20
13.763731227
 30
0.0
 10
17.9128011685
 20
13.7619026678
 30
0.0
  0
SPLINE
  5
38D
100
AcDbEntity
  8
02___PRT_ALL_AXES
100
AcDbSpline
 62
7
  6
BYLAYER
 70
0
 71
3
 72
17
 73
13
 74
0
 42
0.0000001
 43
0.0000001
 44
0.0000000001
 40
0.0
 40
0.0
 40
0.0
 40
0.0
 40
0.050785639
 40
0.1027115068
 40
0.2130418717
 40
0.3354275365
 40
0.4686469943
 40
0.6079206891
 40
0.67794138
 40
0.747024586
 40
0.879108976
 40
1.0
 40
1.0
 40
1.0
 40
1.0
 10
17.9540164788
 20
14.066536757
 30
0.0
 10
17.9531901907
 20
14.0682176128
 30
0.0
 10
17.9511328905
 20
14.0714414986
 30
0.0
 10
17.9455449737
 20
14.0770396221
 30
0.0
 10
17.9359688332
 20
14.0819631302
 30
0.0
 10
17.9224265157
 20
14.0839177175
 30
0.0
 10
17.9078264332
 20
14.0821133811
 30
0.0
 10
17.8958825048
 20
14.0776478071
 30
0.0
 10
17.8869933664
 20
14.072472336
 30
0.0
 10
17.8789761367
 20
14.0664608208
 30
0.0
 10
17.8707786008
 20
14.0576957155
 30
0.0
 10
17.8664184165
 20
14.0492505294
 30
0.0
 10
17.8651020685
 20
14.0449908257
 30
0.0
  0
SPLINE
  5
38E
100
AcDbEntity
  8
0
100
AcDbSpline
 62
7
  6
BYLAYER
 70
0
 71
3
 72
24
 73
20
 74
0
 42
0.0000001
 43
0.0000001
 44
0.0000000001
 40
0.0
 40
0.0
 40
0.0
 40
0.0
 40
0.0154323948
 40
0.0312783084
 40
0.0655589438
 40
0.1051518584
 40
0.1511690561
 40
0.2039161789
 40
0.2631601593
 40
0.3283028828
 40
0.3984889488
 40
0.4726792946
 40
0.5497049292
 40
0.6283104566
 40
0.707193763
 40
0.7850469311
 40
0.8605824112
 40
0.9326108318
 40
1.0
 40
1.0
 40
1.0
 40
1.0
 10
18.2730146764
 20
12.7733118815
 30
0.0
 10
18.27605535
 20
12.7733109419
 30
0.0
 10
18.28223169
 20
12.7727455581
 30
0.0
 10
18.2947445068
 20
12.7693130533
 30
0.0
 10
18.3103336565
 20
12.7603947484
 30
0.0
 10
18.3273958021
 20
12.7438235415
 30
0.0
 10
18.3432741619
 20
12.7215264751
 30
0.0
 10
18.3577517504
 20
12.6938832216
 30
0.0
 10
18.3706019107
 20
12.6613777122
 30
0.0
 10
18.3815835492
 20
12.6246058575
 30
0.0
 10
18.3904853329
 20
12.584262379
 30
0.0
 10
18.3971313474
 20
12.5411208257
 30
0.0
 10
18.4013894807
 20
12.4960147897
 30
0.0
 10
18.4031745623
 20
12.4498194401
 30
0.0
 10
18.4024509631
 20
12.4034323476
 30
0.0
 10
18.3992324195
 20
12.3577571858
 30
0.0
 10
18.3935856192
 20
12.3136764825
 30
0.0
 10
18.3856196696
 20
12.2720521282
 30
0.0
 10
18.3786050844
 20
12.2454613452
 30
0.0
 10
18.3746848446
 20
12.2327754445
 30
0.0
  0
SPLINE
  5
38F
100
AcDbEntity
  8
02___PRT_ALL_AXES
100
AcDbSpline
 62
7
  6
BYLAYER
 70
0
 71
3
 72
21
 73
17
 74
0
 42
0.0000001
 43
0.0000001
 44
0.0000000001
 40
0.0
 40
0.0
 40
0.0
 40
0.0
 40
0.0801866115
 40
0.1343893283
 40
0.1980477235
 40
0.2699655022
 40
0.348329046
 40
0.5151616757
 40
0.5987392803
 40
0.6790203582
 40
0.7536786352
 40
0.820721595
 40
0.8786760147
 40
0.9269360318
 40
0.9663150211
 40
1.0
 40
1.0
 40
1.0
 40
1.0
 10
18.0773070291
 20
12.5340837945
 30
0.0
 10
18.0801127796
 20
12.5349131321
 30
0.0
 10
18.0839178767
 20
12.538694748
 30
0.0
 10
18.0874128436
 20
12.5449425315
 30
0.0
 10
18.0899300561
 20
12.5514413001
 30
0.0
 10
18.0919171293
 20
12.5589951839
 30
0.0
 10
18.0938438374
 20
12.5704184085
 30
0.0
 10
18.0944227851
 20
12.5824537137
 30
0.0
 10
18.0937157593
 20
12.5945063882
 30
0.0
 10
18.0925380395
 20
12.6031391882
 30
0.0
 10
18.0907622453
 20
12.6110531121
 30
0.0
 10
18.0884511613
 20
12.617977688
 30
0.0
 10
18.0856811935
 20
12.6236868753
 30
0.0
 10
18.0825285851
 20
12.6280088941
 30
0.0
 10
18.0790193613
 20
12.6308366278
 30
0.0
 10
18.0763310436
 20
12.6315429904
 30
0.0
 10
18.075101992
 20
12.631539136
 30
0.0
  0
SPLINE
  5
390
100
AcDbEntity
  8
02___PRT_ALL_AXES
100
AcDbSpline
 62
7
  6
BYLAYER
 70
0
 71
3
 72
18
 73
14
 74
0
 42
0.0000001
 43
0.0000001
 44
0.0000000001
 40
0.0
 40
0.0
 40
0.0
 40
0.0
 40
0.0313899212
 40
0.0665355628
 40
0.1078883915
 40
0.1565401863
 40
0.212580093
 40
0.2755217895
 40
0.418020217
 40
0.5739385304
 40
0.730951362
 40
0.876553587
 40
1.0
 40
1.0
 40
1.0
 40
1.0
 10
18.3736409747
 20
11.9309052204
 30
0.0
 10
18.3746361532
 20
11.9309062954
 30
0.0
 10
18.3767608478
 20
11.931356266
 30
0.0
 10
18.3796826016
 20
11.9332312925
 30
0.0
 10
18.3823947248
 20
11.9361679352
 30
0.0
 10
18.3848753971
 20
11.9400991222
 30
0.0
 10
18.3870940909
 20
11.9449417135
 30
0.0
 10
18.3897416793
 20
11.9528095986
 30
0.0
 10
18.3919680084
 20
11.9640959262
 30
0.0
 10
18.3929573278
 20
11.9785307372
 30
0.0
 10
18.3922557019
 20
11.9930893143
 30
0.0
 10
18.3899390484
 20
12.0064272079
 30
0.0
 10
18.3871944014
 20
12.0145755525
 30
0.0
 10
18.3854702416
 20
12.0180890207
 30
0.0
  0
SPLINE
  5
391
100
AcDbEntity
  8
02___PRT_ALL_AXES
100
AcDbSpline
 62
7
  6
BYLAYER
 70
0
 71
3
 72
14
 73
10
 74
0
 42
0.0000001
 43
0.0000001
 44
0.0000000001
 40
0.0
 40
0.0
 40
0.0
 40
0.0
 40
0.2699413971
 40
0.409422653
 40
0.5451038101
 40
0.6729232389
 40
0.7905540687
 40
0.898363335
 40
1.0
 40
1.0
 40
1.0
 40
1.0
 10
17.306860289
 20
14.083286808
 30
0.0
 10
17.2983532341
 20
14.083286808
 30
0.0
 10
17.285324887
 20
14.0802062247
 30
0.0
 10
17.2703151181
 20
14.0717369745
 30
0.0
 10
17.2606073047
 20
14.0633975249
 30
0.0
 10
17.2533178894
 20
14.053721237
 30
0.0
 10
17.248967304
 20
14.0433214762
 30
0.0
 10
17.2479593205
 20
14.0328826325
 30
0.0
 10
17.2497247447
 20
14.0263348787
 30
0.0
 10
17.2511347788
 20
14.0234589154
 30
0.0
  0
SPLINE
  5
392
100
AcDbEntity
  8
02___PRT_ALL_AXES
100
AcDbSpline
 62
7
  6
BYLAYER
 70
0
 71
3
 72
18
 73
14
 74
0
 42
0.0000001
 43
0.0000001
 44
0.0000000001
 40
0.0
 40
0.0
 40
0.0
 40
0.0
 40
0.1393852211
 40
0.2927819298
 40
0.4502785
 40
0.60149873
 40
0.736802521
 40
0.7960744217
 40
0.8488586442
 40
0.894900179
 40
0.9345235345
 40
0.9688231352
 40
1.0
 40
1.0
 40
1.0
 40
1.0
 10
18.1087126167
 20
12.1511736264
 30
0.0
 10
18.1099012072
 20
12.1550199068
 30
0.0
 10
18.1117179519
 20
12.1633125436
 30
0.0
 10
18.1129674176
 20
12.176280543
 30
0.0
 10
18.1128185256
 20
12.1896539635
 30
0.0
 10
18.1112816419
 20
12.2024101426
 30
0.0
 10
18.1088596588
 20
12.212142341
 30
0.0
 10
18.1062315116
 20
12.218796548
 30
0.0
 10
18.1041090282
 20
12.2228517925
 30
0.0
 10
18.101780859
 20
12.2261222645
 30
0.0
 10
18.0992767023
 20
12.2285542515
 30
0.0
 10
18.0966097313
 20
12.230087078
 30
0.0
 10
18.0947065659
 20
12.2304510296
 30
0.0
 10
18.0938061118
 20
12.2304521841
 30
0.0
  0
SPLINE
  5
393
100
AcDbEntity
  8
0
100
AcDbSpline
 62
7
  6
BYLAYER
 70
0
 71
3
 72
15
 73
11
 74
0
 42
0.0000001
 43
0.0000001
 44
0.0000000001
 40
0.0
 40
0.0
 40
0.0
 40
0.0
 40
0.1613010545
 40
0.3109624827
 40
0.4489645082
 40
0.5758262257
 40
0.692521199
 40
0.8005636256
 40
0.902127629
 40
1.0
 40
1.0
 40
1.0
 40
1.0
 10
17.5671256607
 20
11.6975076962
 30
0.0
 10
17.5747085604
 20
11.6820553714
 30
0.0
 10
17.5903159095
 20
11.6527328254
 30
0.0
 10
17.6161024825
 20
11.6122892367
 30
0.0
 10
17.6432550846
 20
11.5772759109
 30
0.0
 10
17.6716109133
 20
11.5479253258
 30
0.0
 10
17.7010197591
 20
11.5244316629
 30
0.0
 10
17.7313403651
 20
11.5069921898
 30
0.0
 10
17.7623747243
 20
11.4957958286
 30
0.0
 10
17.7835855214
 20
11.4925908035
 30
0.0
 10
17.794017872
 20
11.492095959
 30
0.0
  0
SPLINE
  5
394
100
AcDbEntity
  8
02___PRT_ALL_AXES
100
AcDbSpline
 62
7
  6
BYLAYER
 70
0
 71
3
 72
17
 73
13
 74
0
 42
0.0000001
 43
0.0000001
 44
0.0000000001
 40
0.0
 40
0.0
 40
0.0
 40
0.0
 40
0.0328478074
 40
0.0676279268
 40
0.1059114104
 40
0.148752321
 40
0.2498936423
 40
0.3721854089
 40
0.5131913382
 40
0.6685235917
 40
0.8329156281
 40
1.0
 40
1.0
 40
1.0
 40
1.0
 10
18.2174499652
 20
11.8829623092
 30
0.0
 10
18.2181232616
 20
11.8829630291
 30
0.0
 10
18.219515409
 20
11.8831591713
 30
0.0
 10
18.2215342053
 20
11.8840093784
 30
0.0
 10
18.2234848974
 20
11.8853923321
 30
0.0
 10
18.2261204273
 20
11.8880606311
 30
0.0
 10
18.2290778012
 20
11.8927109414
 30
0.0
 10
18.2319447638
 20
11.899631116
 30
0.0
 10
18.2342047085
 20
11.9079293092
 30
0.0
 10
18.2357594291
 20
11.9172575517
 30
0.0
 10
18.2365345789
 20
11.9272169914
 30
0.0
 10
18.2365113598
 20
11.9340202227
 30
0.0
 10
18.2363579987
 20
11.937441593
 30
0.0
  0
SPLINE
  5
395
100
AcDbEntity
  8
02___PRT_ALL_AXES
100
AcDbSpline
 62
7
  6
BYLAYER
 70
0
 71
3
 72
11
 73
7
 74
0
 42
0.0000001
 43
0.0000001
 44
0.0000000001
 40
0.0
 40
0.0
 40
0.0
 40
0.0
 40
0.2268632804
 40
0.4650145788
 40
0.722100556
 40
1.0
 40
1.0
 40
1.0
 40
1.0
 10
17.3389170921
 20
14.0665227361
 30
0.0
 10
17.3376517664
 20
14.0691035461
 30
0.0
 10
17.3341113305
 20
14.0739756048
 30
0.0
 10
17.326537669
 20
14.0793457052
 30
0.0
 10
17.3171891581
 20
14.0826114291
 30
0.0
 10
17.3103812104
 20
14.083286808
 30
0.0
 10
17.306860289
 20
14.083286808
 30
0.0
  0
SPLINE
  5
396
100
AcDbEntity
  8
0
100
AcDbSpline
 62
7
  6
BYLAYER
 70
0
 71
3
 72
11
 73
7
 74
0
 42
0.0000001
 43
0.0000001
 44
0.0000000001
 40
0.0
 40
0.0
 40
0.0
 40
0.0
 40
0.2643796584
 40
0.5171042956
 40
0.7609087708
 40
1.0
 40
1.0
 40
1.0
 40
1.0
 10
17.2658998124
 20
13.7834289345
 30
0.0
 10
17.2626374733
 20
13.7728720011
 30
0.0
 10
17.2578606045
 20
13.7516731756
 30
0.0
 10
17.2564193356
 20
13.7197266615
 30
0.0
 10
17.2609666048
 20
13.6891228954
 30
0.0
 10
17.2679814402
 20
13.6700179072
 30
0.0
 10
17.2723842943
 20
13.6610475666
 30
0.0
  0
SPLINE
  5
397
100
AcDbEntity
  8
02___PRT_ALL_AXES
100
AcDbSpline
 62
7
  6
BYLAYER
 70
0
 71
3
 72
13
 73
9
 74
0
 42
0.0000001
 43
0.0000001
 44
0.0000000001
 40
0.0
 40
0.0
 40
0.0
 40
0.0
 40
0.0859159704
 40
0.1775515467
 40
0.2793768109
 40
0.3943308344
 40
0.6682047645
 40
1.0
 40
1.0
 40
1.0
 40
1.0
 10
18.0937928057
 20
12.1326747101
 30
0.0
 10
18.0945128798
 20
12.1326737869
 30
0.0
 10
18.0960086945
 20
12.1328973213
 30
0.0
 10
18.0981638981
 20
12.1338704984
 30
0.0
 10
18.1002372029
 20
12.1354434147
 30
0.0
 10
18.1030295498
 20
12.1384846673
 30
0.0
 10
18.1061072106
 20
12.1437484211
 30
0.0
 10
18.1078915851
 20
12.1485167673
 30
0.0
 10
18.1087126167
 20
12.1511736264
 30
0.0
  0
SPLINE
  5
398
100
AcDbEntity
  8
0
100
AcDbSpline
 62
7
  6
BYLAYER
 70
0
 71
3
 72
40
 73
36
 74
0
 42
0.0000001
 43
0.0000001
 44
0.0000000001
 40
0.0
 40
0.0
 40
0.0
 40
0.0
 40
0.0491496795
 40
0.101054506
 40
0.1555836023
 40
0.2125952317
 40
0.2718996813
 40
0.3332801629
 40
0.3964985868
 40
0.4612999097
 40
0.5274185803
 40
0.5945840997
 40
0.6625279378
 40
0.6967142901
 40
0.7310008031
 40
0.7653594488
 40
0.7997649794
 40
0.8169798214
 40
0.8341986302
 40
0.8514188113
 40
0.8686369143
 40
0.8858465436
 40
0.9030312762
 40
0.9116048526
 40
0.9201482849
 40
0.9286338425
 40
0.9370058177
 40
0.9451492881
 40
0.9491163674
 40
0.9530048615
 40
0.96065085
 40
0.9683199612
 40
0.9760930065
 40
0.9839753576
 40
1.0
 40
1.0
 40
1.0
 40
1.0
 10
17.2825405164
 20
11.7081975601
 30
0.0
 10
17.2752135825
 20
11.7231282816
 30
0.0
 10
17.2612764245
 20
11.7543890444
 30
0.0
 10
17.242942785
 20
11.8037732173
 30
0.0
 10
17.2267259798
 20
11.8566806008
 30
0.0
 10
17.2127516421
 20
11.9128041438
 30
0.0
 10
17.2011508544
 20
11.9718288663
 30
0.0
 10
17.1920618378
 20
12.0334148516
 30
0.0
 10
17.1856318772
 20
12.0972044662
 30
0.0
 10
17.182024081
 20
12.1628219601
 30
0.0
 10
17.1814267458
 20
12.2298735137
 30
0.0
 10
17.1840748362
 20
12.2979412185
 30
0.0
 10
17.189236837
 20
12.3550272295
 30
0.0
 10
17.1953885042
 20
12.4007833013
 30
0.0
 10
17.2011216714
 20
12.4351115114
 30
0.0
 10
17.2080905186
 20
12.4692870682
 30
0.0
 10
17.2150802702
 20
12.4975409653
 30
0.0
 10
17.2215335576
 20
12.5199261885
 30
0.0
 10
17.2268638169
 20
12.5365756928
 30
0.0
 10
17.2327595215
 20
12.5530356239
 30
0.0
 10
17.2393305369
 20
12.5692374157
 30
0.0
 10
17.2467422265
 20
12.5850613395
 30
0.0
 10
17.2538423486
 20
12.5977752058
 30
0.0
 10
17.2603207278
 20
12.6074150108
 30
0.0
 10
17.2656676761
 20
12.614244598
 30
0.0
 10
17.2716326968
 20
12.6204610304
 30
0.0
 10
17.2783417276
 20
12.6256825534
 30
0.0
 10
17.2847582282
 20
12.6285861286
 30
0.0
 10
17.2901320098
 20
12.6294752146
 30
0.0
 10
17.295407912
 20
12.6292603504
 30
0.0
 10
17.3016870764
 20
12.6270558474
 30
0.0
 10
17.3079612238
 20
12.6222753907
 30
0.0
 10
17.3132526448
 20
12.6163815633
 30
0.0
 10
17.3193639818
 20
12.6075523047
 30
0.0
 10
17.3230956321
 20
12.6003399529
 30
0.0
 10
17.325373261
 20
12.5954189538
 30
0.0
  0
SPLINE
  5
399
100
AcDbEntity
  8
02___PRT_ALL_AXES
100
AcDbSpline
 62
7
  6
BYLAYER
 70
0
 71
3
 72
18
 73
14
 74
0
 42
0.0000001
 43
0.0000001
 44
0.0000000001
 40
0.0
 40
0.0
 40
0.0
 40
0.0
 40
0.0313899212
 40
0.0665355628
 40
0.1078883915
 40
0.1565401863
 40
0.212580093
 40
0.2755217895
 40
0.418020217
 40
0.5739385304
 40
0.730951362
 40
0.876553587
 40
1.0
 40
1.0
 40
1.0
 40
1.0
 10
18.1723776434
 20
12.8512766781
 30
0.0
 10
18.1733728219
 20
12.8512777531
 30
0.0
 10
18.1754975166
 20
12.8517277236
 30
0.0
 10
18.1784192704
 20
12.8536027501
 30
0.0
 10
18.1811313935
 20
12.8565393929
 30
0.0
 10
18.1836120658
 20
12.8604705798
 30
0.0
 10
18.1858307597
 20
12.8653131711
 30
0.0
 10
18.1884783481
 20
12.8731810562
 30
0.0
 10
18.1907046772
 20
12.8844673839
 30
0.0
 10
18.1916939966
 20
12.8989021948
 30
0.0
 10
18.1909923707
 20
12.9134607719
 30
0.0
 10
18.1886757172
 20
12.9267986655
 30
0.0
 10
18.1859310701
 20
12.9349470102
 30
0.0
 10
18.1842069104
 20
12.9384604784
 30
0.0
  0
SPLINE
  5
39A
100
AcDbEntity
  8
02___PRT_ALL_AXES
100
AcDbSpline
 62
7
  6
BYLAYER
 70
0
 71
3
 72
15
 73
11
 74
0
 42
0.0000001
 43
0.0000001
 44
0.0000000001
 40
0.0
 40
0.0
 40
0.0
 40
0.0
 40
0.1734563934
 40
0.3392725583
 40
0.4926163165
 40
0.6299720811
 40
0.7487638761
 40
0.8480145523
 40
0.9296139082
 40
1.0
 40
1.0
 40
1.0
 40
1.0
 10
18.2363579987
 20
11.937441593
 30
0.0
 10
18.2362277813
 20
11.9403466446
 30
0.0
 10
18.2357722391
 20
11.9460221508
 30
0.0
 10
18.234495578
 20
11.9541898796
 30
0.0
 10
18.2326722285
 20
11.961634259
 30
0.0
 10
18.2303642854
 20
11.9681150811
 30
0.0
 10
18.2276461389
 20
11.973442415
 30
0.0
 10
18.224577985
 20
11.9774664336
 30
0.0
 10
18.2211861257
 20
11.9800836185
 30
0.0
 10
18.2186193495
 20
11.9807411375
 30
0.0
 10
18.2174393387
 20
11.9807398759
 30
0.0
  0
SPLINE
  5
39B
100
AcDbEntity
  8
0
100
AcDbSpline
 62
7
  6
BYLAYER
 70
0
 71
3
 72
9
 73
5
 74
0
 42
0.0000001
 43
0.0000001
 44
0.0000000001
 40
0.0
 40
0.0
 40
0.0
 40
0.0
 40
0.4757485538
 40
1.0
 40
1.0
 40
1.0
 40
1.0
 10
17.3424889032
 20
11.6084784781
 30
0.0
 10
17.331388117
 20
11.6232422662
 30
0.0
 10
17.3099025879
 20
11.6556791057
 30
0.0
 10
17.2915076308
 20
11.6899245021
 30
0.0
 10
17.2825405164
 20
11.7081975601
 30
0.0
  0
SPLINE
  5
39C
100
AcDbEntity
  8
02___PRT_ALL_AXES
100
AcDbSpline
 62
7
  6
BYLAYER
 70
0
 71
3
 72
13
 73
9
 74
0
 42
0.0000001
 43
0.0000001
 44
0.0000000001
 40
0.0
 40
0.0
 40
0.0
 40
0.0
 40
0.1031957305
 40
0.210660594
 40
0.3254562861
 40
0.4488597387
 40
0.717263436
 40
1.0
 40
1.0
 40
1.0
 40
1.0
 10
17.1306990086
 20
13.8049552012
 30
0.0
 10
17.1295577496
 20
13.8072852753
 30
0.0
 10
17.1264638763
 20
13.8117028058
 30
0.0
 10
17.119937048
 20
13.8168047389
 30
0.0
 10
17.111858734
 20
13.8202402991
 30
0.0
 10
17.0992329231
 20
13.8224904146
 30
0.0
 10
17.0820199946
 20
13.8204291386
 30
0.0
 10
17.0692281329
 20
13.8144791287
 30
0.0
 10
17.0633320009
 20
13.8105082832
 30
0.0
  0
SPLINE
  5
39D
100
AcDbEntity
  8
0
100
AcDbSpline
 62
7
  6
BYLAYER
 70
0
 71
3
 72
27
 73
23
 74
0
 42
0.0000001
 43
0.0000001
 44
0.0000000001
 40
0.0
 40
0.0
 40
0.0
 40
0.0
 40
0.0673851939
 40
0.1393989768
 40
0.214928878
 40
0.2927725251
 40
0.3716463223
 40
0.4502420619
 40
0.5272577259
 40
0.6014379094
 40
0.671613114
 40
0.736744412
 40
0.795977248
 40
0.8231933164
 40
0.8487382281
 40
0.8725957277
 40
0.8947819041
 40
0.9343646599
 40
0.9520956506
 40
0.9687267353
 40
0.9845700212
 40
1.0
 40
1.0
 40
1.0
 40
1.0
 10
18.0675246317
 20
12.8587021487
 30
0.0
 10
18.0596015044
 20
12.8330628993
 30
0.0
 10
18.045424676
 20
12.7793249292
 30
0.0
 10
18.0293277899
 20
12.6952027865
 30
0.0
 10
18.0179154893
 20
12.606118628
 30
0.0
 10
18.0114131261
 20
12.513809507
 30
0.0
 10
18.0099524386
 20
12.4200633135
 30
0.0
 10
18.0135612953
 20
12.326704946
 30
0.0
 10
18.0221683098
 20
12.2355484121
 30
0.0
 10
18.0356016147
 20
12.14836372
 30
0.0
 10
18.0535941549
 20
12.0668328247
 30
0.0
 10
18.0757908993
 20
11.992529741
 30
0.0
 10
18.098018867
 20
11.9362914409
 30
0.0
 10
18.1177802265
 20
11.8962816543
 30
0.0
 10
18.1329414796
 20
11.8697798578
 30
0.0
 10
18.148795079
 20
11.8460448473
 30
0.0
 10
18.1699468717
 20
11.8192836592
 30
0.0
 10
18.1929022403
 20
11.7970418255
 30
0.0
 10
18.2176687224
 20
11.7809562229
 30
0.0
 10
18.2359106849
 20
11.7725748164
 30
0.0
 10
18.2543925077
 20
11.7675028432
 30
0.0
 10
18.266874734
 20
11.7663669342
 30
0.0
 10
18.2730195861
 20
11.7663683167
 30
0.0
  0
SPLINE
  5
39E
100
AcDbEntity
  8
02___PRT_ALL_AXES
100
AcDbSpline
 62
7
  6
BYLAYER
 70
0
 71
3
 72
10
 73
6
 74
0
 42
0.0000001
 43
0.0000001
 44
0.0000000001
 40
0.0
 40
0.0
 40
0.0
 40
0.0
 40
0.5161344746
 40
0.7604943016
 40
1.0
 40
1.0
 40
1.0
 40
1.0
 10
17.0883388113
 20
13.5218670433
 30
0.0
 10
17.0872197481
 20
13.5182457532
 30
0.0
 10
17.086381498
 20
13.5125649378
 30
0.0
 10
17.087472428
 20
13.5052644101
 30
0.0
 10
17.08870777
 20
13.5018995244
 30
0.0
 10
17.0894836983
 20
13.500321112
 30
0.0
  0
SPLINE
  5
39F
100
AcDbEntity
  8
02___PRT_ALL_AXES
100
AcDbSpline
 62
7
  6
BYLAYER
 70
0
 71
3
 72
11
 73
7
 74
0
 42
0.0000001
 43
0.0000001
 44
0.0000000001
 40
0.0
 40
0.0
 40
0.0
 40
0.0
 40
0.3156806228
 40
0.5821591739
 40
0.8046012074
 40
1.0
 40
1.0
 40
1.0
 40
1.0
 10
18.3854702416
 20
12.0180890207
 30
0.0
 10
18.384698944
 20
12.0196607599
 30
0.0
 10
18.3830937201
 20
12.0224787934
 30
0.0
 10
18.3802058472
 20
12.0259234285
 30
0.0
 10
18.3770497756
 20
12.0281405759
 30
0.0
 10
18.3747144978
 20
12.0286820272
 30
0.0
 10
18.3736308014
 20
12.0286808565
 30
0.0
  0
SPLINE
  5
3A0
100
AcDbEntity
  8
02___PRT_ALL_AXES
100
AcDbSpline
 62
7
  6
BYLAYER
 70
0
 71
3
 72
21
 73
17
 74
0
 42
0.0000001
 43
0.0000001
 44
0.0000000001
 40
0.0
 40
0.0
 40
0.0
 40
0.0
 40
0.0801866115
 40
0.1343893283
 40
0.1980477235
 40
0.2699655022
 40
0.348329046
 40
0.5151616757
 40
0.5987392803
 40
0.6790203582
 40
0.7536786352
 40
0.820721595
 40
0.8786760147
 40
0.9269360318
 40
0.9663150211
 40
1.0
 40
1.0
 40
1.0
 40
1.0
 10
18.4730555026
 20
12.2487373461
 30
0.0
 10
18.4758612532
 20
12.2495666837
 30
0.0
 10
18.4796663503
 20
12.2533482996
 30
0.0
 10
18.4831613171
 20
12.2595960832
 30
0.0
 10
18.4856785296
 20
12.2660948517
 30
0.0
 10
18.4876656028
 20
12.2736487355
 30
0.0
 10
18.489592311
 20
12.2850719601
 30
0.0
 10
18.4901712586
 20
12.2971072653
 30
0.0
 10
18.4894642328
 20
12.3091599398
 30
0.0
 10
18.4882865131
 20
12.3177927398
 30
0.0
 10
18.4865107189
 20
12.3257066637
 30
0.0
 10
18.4841996348
 20
12.3326312396
 30
0.0
 10
18.481429667
 20
12.338340427
 30
0.0
 10
18.4782770587
 20
12.3426624458
 30
0.0
 10
18.4747678349
 20
12.3454901795
 30
0.0
 10
18.4720795171
 20
12.346196542
 30
0.0
 10
18.4708504655
 20
12.3461926877
 30
0.0
  0
SPLINE
  5
3A1
100
AcDbEntity
  8
02___PRT_ALL_AXES
100
AcDbSpline
 62
7
  6
BYLAYER
 70
0
 71
3
 72
19
 73
15
 74
0
 42
0.0000001
 43
0.0000001
 44
0.0000000001
 40
0.0
 40
0.0
 40
0.0
 40
0.0
 40
0.0533440231
 40
0.1095469655
 40
0.1691887665
 40
0.2324853322
 40
0.3679987391
 40
0.5101117299
 40
0.6498836108
 40
0.779221135
 40
0.8387828776
 40
0.8948654775
 40
0.9481769832
 40
1.0
 40
1.0
 40
1.0
 40
1.0
 10
17.6762681073
 20
14.1804126572
 30
0.0
 10
17.6747996638
 20
14.1821067372
 30
0.0
 10
17.671327429
 20
14.1852093681
 30
0.0
 10
17.6650449757
 20
14.1886489747
 30
0.0
 10
17.6578009652
 20
14.1908685975
 30
0.0
 10
17.6469675619
 20
14.1921518189
 30
0.0
 10
17.6325224451
 20
14.1903472324
 30
0.0
 10
17.6161438121
 20
14.1835441917
 30
0.0
 10
17.6022598925
 20
14.1729219838
 30
0.0
 10
17.5939580411
 20
14.1615461267
 30
0.0
 10
17.5903467454
 20
14.1518415026
 30
0.0
 10
17.5892575066
 20
14.1447671
 30
0.0
 10
17.5897820389
 20
14.1379489024
 30
0.0
 10
17.5912265843
 20
14.1337126928
 30
0.0
 10
17.5921898923
 20
14.1317593035
 30
0.0
  0
SPLINE
  5
3A2
100
AcDbEntity
  8
02___PRT_ALL_AXES
100
AcDbSpline
 62
7
  6
BYLAYER
 70
0
 71
3
 72
18
 73
14
 74
0
 42
0.0000001
 43
0.0000001
 44
0.0000000001
 40
0.0
 40
0.0
 40
0.0
 40
0.0
 40
0.1393852211
 40
0.2927819298
 40
0.4502785
 40
0.60149873
 40
0.736802521
 40
0.7960744217
 40
0.8488586442
 40
0.894900179
 40
0.9345235345
 40
0.9688231352
 40
1.0
 40
1.0
 40
1.0
 40
1.0
 10
18.467122144
 20
12.6680042668
 30
0.0
 10
18.4683107345
 20
12.6718505472
 30
0.0
 10
18.4701274792
 20
12.680143184
 30
0.0
 10
18.471376945
 20
12.6931111834
 30
0.0
 10
18.471228053
 20
12.7064846038
 30
0.0
 10
18.4696911692
 20
12.7192407829
 30
0.0
 10
18.4672691862
 20
12.7289729814
 30
0.0
 10
18.4646410389
 20
12.7356271884
 30
0.0
 10
18.4625185555
 20
12.7396824329
 30
0.0
 10
18.4601903863
 20
12.7429529049
 30
0.0
 10
18.4576862296
 20
12.7453848919
 30
0.0
 10
18.4550192586
 20
12.7469177184
 30
0.0
 10
18.4531160933
 20
12.74728167
 30
0.0
 10
18.4522156391
 20
12.7472828244
 30
0.0
  0
SPLINE
  5
3A3
100
AcDbEntity
  8
0
100
AcDbSpline
 62
7
  6
BYLAYER
 70
0
 71
3
 72
23
 73
19
 74
0
 42
0.0000001
 43
0.0000001
 44
0.0000000001
 40
0.0
 40
0.0
 40
0.0
 40
0.0
 40
0.0161679031
 40
0.0325187601
 40
0.0656228583
 40
0.0991239779
 40
0.1329061666
 40
0.1668875804
 40
0.2010031806
 40
0.2694191136
 40
0.3377640007
 40
0.4056931854
 40
0.4728882429
 40
0.539048976
 40
0.66713595
 40
0.787851602
 40
0.8993313424
 40
1.0
 40
1.0
 40
1.0
 40
1.0
 10
17.325373261
 20
12.5954189538
 30
0.0
 10
17.3274840444
 20
12.590858438
 30
0.0
 10
17.3313401119
 20
12.5815046307
 30
0.0
 10
17.3380698119
 20
12.5622443525
 30
0.0
 10
17.3451961154
 20
12.5374468323
 30
0.0
 10
17.3526028692
 20
12.5071333583
 30
0.0
 10
17.359322416
 20
12.4763814949
 30
0.0
 10
17.3656185682
 20
12.4453471034
 30
0.0
 10
17.3736763639
 20
12.4036879016
 30
0.0
 10
17.3833839125
 20
12.3514705837
 30
0.0
 10
17.3950551233
 20
12.2889284683
 30
0.0
 10
17.4070772566
 20
12.2268385847
 30
0.0
 10
17.4196508363
 20
12.1655496832
 30
0.0
 10
17.4371289211
 20
12.0861877509
 30
0.0
 10
17.460624051
 20
11.9911254841
 30
0.0
 10
17.4923109877
 20
11.883669475
 30
0.0
 10
17.5270149086
 20
11.7861426628
 30
0.0
 10
17.5533411547
 20
11.725597566
 30
0.0
 10
17.5671256607
 20
11.6975076962
 30
0.0
  0
SPLINE
  5
3A4
100
AcDbEntity
  8
0
100
AcDbSpline
 62
7
  6
BYLAYER
 70
0
 71
3
 72
14
 73
10
 74
0
 42
0.0000001
 43
0.0000001
 44
0.0000000001
 40
0.0
 40
0.0
 40
0.0
 40
0.0
 40
0.296176533
 40
0.4302359164
 40
0.5558190224
 40
0.6740019348
 40
0.7862118609
 40
0.894201384
 40
1.0
 40
1.0
 40
1.0
 40
1.0
 10
16.9574652
 20
13.2237682526
 30
0.0
 10
16.9457635171
 20
13.2398417209
 30
0.0
 10
16.9271934656
 20
13.2621827053
 30
0.0
 10
16.8995292087
 20
13.2872938799
 30
0.0
 10
16.8790371871
 20
13.302329417
 30
0.0
 10
16.8581801611
 20
13.3141185691
 30
0.0
 10
16.8370278318
 20
13.3226019502
 30
0.0
 10
16.815669814
 20
13.3277227881
 30
0.0
 10
16.8012937251
 20
13.3288663051
 30
0.0
 10
16.7941916554
 20
13.3288664657
 30
0.0
  0
SPLINE
  5
3A5
100
AcDbEntity
  8
0
100
AcDbSpline
 62
7
  6
BYLAYER
 70
0
 71
3
 72
9
 73
5
 74
0
 42
0.0000001
 43
0.0000001
 44
0.0000000001
 40
0.0
 40
0.0
 40
0.0
 40
0.0
 40
0.2358677989
 40
1.0
 40
1.0
 40
1.0
 40
1.0
 10
16.5907181297
 20
11.4980582155
 30
0.0
 10
16.5898483467
 20
11.4985332396
 30
0.0
 10
16.5860107778
 20
11.5002724697
 30
0.0
 10
16.5817292639
 20
11.5009127133
 30
0.0
 10
16.5785186115
 20
11.5009127133
 30
0.0
  0
SPLINE
  5
3A6
100
AcDbEntity
  8
0
100
AcDbSpline
 62
7
  6
BYLAYER
 70
0
 71
3
 72
11
 73
7
 74
0
 42
0.0000001
 43
0.0000001
 44
0.0000000001
 40
0.0
 40
0.0
 40
0.0
 40
0.0
 40
0.2268630568
 40
0.4649901318
 40
0.7222804645
 40
1.0
 40
1.0
 40
1.0
 40
1.0
 10
16.5364282921
 20
11.4820627309
 30
0.0
 10
16.5371942108
 20
11.4805081745
 30
0.0
 10
16.5393290704
 20
11.477571773
 30
0.0
 10
16.5438996206
 20
11.4743365221
 30
0.0
 10
16.5495373365
 20
11.4723724746
 30
0.0
 10
16.5536418264
 20
11.4719633692
 30
0.0
 10
16.5557633132
 20
11.4719633692
 30
0.0
  0
SPLINE
  5
3A7
100
AcDbEntity
  8
0
100
AcDbSpline
 62
7
  6
BYLAYER
 70
0
 71
3
 72
11
 73
7
 74
0
 42
0.0000001
 43
0.0000001
 44
0.0000000001
 40
0.0
 40
0.0
 40
0.0
 40
0.0
 40
0.2844390168
 40
0.5409310303
 40
0.7762517905
 40
1.0
 40
1.0
 40
1.0
 40
1.0
 10
17.0843481622
 20
13.1582607186
 30
0.0
 10
17.0756545972
 20
13.1675325791
 30
0.0
 10
17.0579372501
 20
13.1841332379
 30
0.0
 10
17.0287932676
 20
13.2033156972
 30
0.0
 10
16.9987785944
 20
13.2150799092
 30
0.0
 10
16.9781820976
 20
13.217753665
 30
0.0
 10
16.9681839906
 20
13.217755725
 30
0.0
  0
SPLINE
  5
3A8
100
AcDbEntity
  8
0
100
AcDbSpline
 62
7
  6
BYLAYER
 70
0
 71
3
 72
23
 73
19
 74
0
 42
0.0000001
 43
0.0000001
 44
0.0000000001
 40
0.0
 40
0.0
 40
0.0
 40
0.0
 40
0.0504822557
 40
0.105234023
 40
0.164061151
 40
0.2265550919
 40
0.292148349
 40
0.3601568213
 40
0.4298142874
 40
0.5003028557
 40
0.5707799633
 40
0.6404033531
 40
0.7083561014
 40
0.7738738799
 40
0.836275295
 40
0.8949965027
 40
0.949633834
 40
1.0
 40
1.0
 40
1.0
 40
1.0
 10
14.6026932527
 20
11.7788158789
 30
0.0
 10
14.591288262
 20
11.7987672131
 30
0.0
 10
14.569904344
 20
11.8417437142
 30
0.0
 10
14.5427254327
 20
11.9113880861
 30
0.0
 10
14.5192611509
 20
11.9881006519
 30
0.0
 10
14.4997046527
 20
12.0709655171
 30
0.0
 10
14.4842556499
 20
12.1589335227
 30
0.0
 10
14.4730967023
 20
12.2508286823
 30
0.0
 10
14.4663677354
 20
12.3453854056
 30
0.0
 10
14.4641559368
 20
12.4412781674
 30
0.0
 10
14.4664904936
 20
12.5371525202
 30
0.0
 10
14.4733406362
 20
12.6316543834
 30
0.0
 10
14.4846176858
 20
12.7234594221
 30
0.0
 10
14.5001801964
 20
12.8113041552
 30
0.0
 10
14.5198448543
 20
12.8940154989
 30
0.0
 10
14.5434117259
 20
12.9705480341
 30
0.0
 10
14.5706889399
 20
13.0399899882
 30
0.0
 10
14.5921408645
 20
13.0828162265
 30
0.0
 10
14.6035796944
 20
13.1026872236
 30
0.0
  0
SPLINE
  5
3A9
100
AcDbEntity
  8
0
100
AcDbSpline
 62
7
  6
BYLAYER
 70
0
 71
3
 72
11
 73
7
 74
0
 42
0.0000001
 43
0.0000001
 44
0.0000000001
 40
0.0
 40
0.0
 40
0.0
 40
0.0
 40
0.2234861805
 40
0.4586705092
 40
0.7152489668
 40
1.0
 40
1.0
 40
1.0
 40
1.0
 10
16.9681573719
 20
11.66220109
 30
0.0
 10
16.9782234006
 20
11.6621996891
 30
0.0
 10
16.9989672152
 20
11.664911496
 30
0.0
 10
17.029185369
 20
11.6768285767
 30
0.0
 10
17.0585107949
 20
11.6962658103
 30
0.0
 10
17.0763241856
 20
11.7130735076
 30
0.0
 10
17.0850627035
 20
11.7224612985
 30
0.0
  0
SPLINE
  5
3AA
100
AcDbEntity
  8
0
100
AcDbSpline
 62
7
  6
BYLAYER
 70
0
 71
3
 72
11
 73
7
 74
0
 42
0.0000001
 43
0.0000001
 44
0.0000000001
 40
0.0
 40
0.0
 40
0.0
 40
0.0
 40
0.275374821
 40
0.5298041644
 40
0.7689607212
 40
1.0
 40
1.0
 40
1.0
 40
1.0
 10
16.9621442097
 20
11.6601054016
 30
0.0
 10
16.9543299196
 20
11.6534023254
 30
0.0
 10
16.9384487832
 20
11.6414333976
 30
0.0
 10
16.9129527413
 20
11.6278592766
 30
0.0
 10
16.8869773284
 20
11.6196167622
 30
0.0
 10
16.8693484949
 20
11.61775631
 30
0.0
 10
16.8607106983
 20
11.6177565666
 30
0.0
  0
SPLINE
  5
3AB
100
AcDbEntity
  8
0
100
AcDbSpline
 62
7
  6
BYLAYER
 70
0
 71
3
 72
11
 73
7
 74
0
 42
0.0000001
 43
0.0000001
 44
0.0000000001
 40
0.0
 40
0.0
 40
0.0
 40
0.0
 40
0.2303736878
 40
0.4691814115
 40
0.7238065038
 40
1.0
 40
1.0
 40
1.0
 40
1.0
 10
16.8607106983
 20
13.2622001316
 30
0.0
 10
16.8695276473
 20
13.2621995184
 30
0.0
 10
16.887537722
 20
13.2602637366
 30
0.0
 10
16.9140497531
 20
13.2516636276
 30
0.0
 10
16.9400512128
 20
13.2375238377
 30
0.0
 10
16.956208724
 20
13.22507376
 30
0.0
 10
16.9641571867
 20
13.2181053205
 30
0.0
  0
SPLINE
  5
3AC
100
AcDbEntity
  8
0
100
AcDbSpline
 62
7
  6
BYLAYER
 70
0
 71
3
 72
12
 73
8
 74
0
 42
0.0000001
 43
0.0000001
 44
0.0000000001
 40
0.0
 40
0.0
 40
0.0
 40
0.0
 40
0.1113645069
 40
0.2242043789
 40
0.4594715417
 40
0.7158880808
 40
1.0
 40
1.0
 40
1.0
 40
1.0
 10
16.7941997282
 20
11.5510914236
 30
0.0
 10
16.7998690588
 20
11.5510921541
 30
0.0
 10
16.8112961725
 20
11.5518179434
 30
0.0
 10
16.8343240737
 20
11.5562012585
 30
0.0
 10
16.8632727746
 20
11.5674848428
 30
0.0
 10
16.8964672444
 20
11.5892832836
 30
0.0
 10
16.9166757774
 20
11.6081439993
 30
0.0
 10
16.9265860009
 20
11.6186787657
 30
0.0
  0
SPLINE
  5
3AD
100
AcDbEntity
  8
0
100
AcDbSpline
 62
7
  6
BYLAYER
 70
0
 71
3
 72
37
 73
33
 74
0
 42
0.0000001
 43
0.0000001
 44
0.0000000001
 40
0.0
 40
0.0
 40
0.0
 40
0.0
 40
0.008367045
 40
0.0168454407
 40
0.0345228932
 40
0.053784885
 40
0.0751383559
 40
0.0988894797
 40
0.1251819465
 40
0.1540360637
 40
0.1853821684
 40
0.219079758
 40
0.2549336311
 40
0.2927069914
 40
0.3321276751
 40
0.4146777779
 40
0.4999971442
 40
0.5853166704
 40
0.6678672991
 40
0.7072882291
 40
0.7450620861
 40
0.7809164238
 40
0.8146143953
 40
0.845961207
 40
0.8748158468
 40
0.9011087699
 40
0.9248606306
 40
0.9462145343
 40
0.9654768868
 40
0.9831547414
 40
0.9916330869
 40
1.0
 40
1.0
 40
1.0
 40
1.0
 10
14.8343866132
 20
11.5510914236
 30
0.0
 10
14.8287136585
 20
11.5510906925
 30
0.0
 10
14.8172785832
 20
11.5518143891
 30
0.0
 10
14.7942351414
 20
11.5562043552
 30
0.0
 10
14.7652704273
 20
11.5674950533
 30
0.0
 10
14.7320491828
 20
11.5893189277
 30
0.0
 10
14.7000298348
 20
11.6192224808
 30
0.0
 10
14.6694280774
 20
11.6568865123
 30
0.0
 10
14.6404570784
 20
11.7019622142
 30
0.0
 10
14.6133535095
 20
11.754042432
 30
0.0
 10
14.5883610298
 20
11.8126531909
 30
0.0
 10
14.5657113008
 20
11.8772500331
 30
0.0
 10
14.5456174115
 20
11.9472250945
 30
0.0
 10
14.5282737679
 20
12.0219171965
 30
0.0
 10
14.5087452344
 20
12.1284834239
 30
0.0
 10
14.4925256852
 20
12.2682657737
 30
0.0
 10
14.4860423325
 20
12.4399690271
 30
0.0
 10
14.4925245038
 20
12.6116726453
 30
0.0
 10
14.5087422714
 20
12.7514558589
 30
0.0
 10
14.5282704675
 20
12.8580230187
 30
0.0
 10
14.5456130295
 20
12.9327162028
 30
0.0
 10
14.5657063625
 20
13.0026923898
 30
0.0
 10
14.5883559992
 20
13.0672903628
 30
0.0
 10
14.6133473947
 20
13.1259027595
 30
0.0
 10
14.640450684
 20
13.1779844474
 30
0.0
 10
14.6694217378
 20
13.2230614494
 30
0.0
 10
14.700022484
 20
13.2607276847
 30
0.0
 10
14.73204181
 20
13.2906329184
 30
0.0
 10
14.7652630935
 20
13.3124579104
 30
0.0
 10
14.7942273163
 20
13.3237513968
 30
0.0
 10
14.8172708413
 20
13.3281417352
 30
0.0
 10
14.828705675
 20
13.328866594
 30
0.0
 10
14.8343785404
 20
13.3288664657
 30
0.0
  0
SPLINE
  5
3AE
100
AcDbEntity
  8
0
100
AcDbSpline
 62
7
  6
BYLAYER
 70
0
 71
3
 72
12
 73
8
 74
0
 42
0.0000001
 43
0.0000001
 44
0.0000000001
 40
0.0
 40
0.0
 40
0.0
 40
0.0
 40
0.2567204982
 40
0.3902273217
 40
0.5231813777
 40
0.7758926627
 40
1.0
 40
1.0
 40
1.0
 40
1.0
 10
16.5785186115
 20
11.5009127133
 30
0.0
 10
16.5745150203
 20
11.5009127133
 30
0.0
 10
16.5683898251
 20
11.4997755704
 30
0.0
 10
16.5608869561
 20
11.4965233327
 30
0.0
 10
16.5540096078
 20
11.492197469
 30
0.0
 10
16.547171065
 20
11.4853551657
 30
0.0
 10
16.5440608314
 20
11.4783003481
 30
0.0
 10
16.5435162921
 20
11.4748480454
 30
0.0
  0
SPLINE
  5
3AF
100
AcDbEntity
  8
0
100
AcDbSpline
 62
7
  6
BYLAYER
 70
0
 71
3
 72
14
 73
10
 74
0
 42
0.0000001
 43
0.0000001
 44
0.0000000001
 40
0.0
 40
0.0
 40
0.0
 40
0.0
 40
0.269993807
 40
0.4094466673
 40
0.5451394958
 40
0.6729569133
 40
0.7905704427
 40
0.8983629651
 40
1.0
 40
1.0
 40
1.0
 40
1.0
 10
16.5557633132
 20
11.4719633692
 30
0.0
 10
16.560899104
 20
11.4719633692
 30
0.0
 10
16.568763819
 20
11.4738233106
 30
0.0
 10
16.5778220901
 20
11.4789391257
 30
0.0
 10
16.5836811536
 20
11.4839727676
 30
0.0
 10
16.5880786718
 20
11.4898151312
 30
0.0
 10
16.5906999429
 20
11.4960938738
 30
0.0
 10
16.5913025494
 20
11.5023941752
 30
0.0
 10
16.5902347049
 20
11.5063460348
 30
0.0
 10
16.5893802473
 20
11.5080802951
 30
0.0
  0
SPLINE
  5
3B0
100
AcDbEntity
  8
0
100
AcDbSpline
 62
7
  6
BYLAYER
 70
0
 71
3
 72
11
 73
7
 74
0
 42
0.0000001
 43
0.0000001
 44
0.0000000001
 40
0.0
 40
0.0
 40
0.0
 40
0.0
 40
0.2224617813
 40
0.4572314264
 40
0.7154487837
 40
1.0
 40
1.0
 40
1.0
 40
1.0
 10
15.6126928165
 20
11.8484911506
 30
0.0
 10
15.6132016234
 20
11.8501376489
 30
0.0
 10
15.6149366598
 20
11.8533452401
 30
0.0
 10
15.6192796786
 20
11.8569653442
 30
0.0
 10
15.6249701607
 20
11.8591850218
 30
0.0
 10
15.6291981
 20
11.8596388324
 30
0.0
 10
15.6314024048
 20
11.8596388324
 30
0.0
  0
SPLINE
  5
3B1
100
AcDbEntity
  8
0
100
AcDbSpline
 62
7
  6
BYLAYER
 70
0
 71
3
 72
10
 73
6
 74
0
 42
0.0000001
 43
0.0000001
 44
0.0000000001
 40
0.0
 40
0.0
 40
0.0
 40
0.0
 40
0.2446333011
 40
0.6273606653
 40
1.0
 40
1.0
 40
1.0
 40
1.0
 10
15.8360826257
 20
11.8596388324
 30
0.0
 10
15.8385081809
 20
11.8596388324
 30
0.0
 10
15.8447388698
 20
11.8588996095
 30
0.0
 10
15.8541142273
 20
11.8552967807
 30
0.0
 10
15.8602178883
 20
11.8507472494
 30
0.0
 10
15.8627921209
 20
11.8480968806
 30
0.0
  0
SPLINE
  5
3B2
100
AcDbEntity
  8
0
100
AcDbSpline
 62
7
  6
BYLAYER
 70
0
 71
3
 72
37
 73
33
 74
0
 42
0.0000001
 43
0.0000001
 44
0.0000000001
 40
0.0
 40
0.0
 40
0.0
 40
0.0
 40
0.0083669131
 40
0.0168452586
 40
0.0345231132
 40
0.0537854657
 40
0.0751393694
 40
0.0988912301
 40
0.1251841532
 40
0.154038793
 40
0.1853856047
 40
0.2190835762
 40
0.2549379139
 40
0.2927117709
 40
0.3321327009
 40
0.4146833296
 40
0.5000028558
 40
0.5853222221
 40
0.6678723249
 40
0.7072930086
 40
0.7450663689
 40
0.780920242
 40
0.8146178316
 40
0.8459639363
 40
0.8748180535
 40
0.9011105203
 40
0.9248616441
 40
0.946215115
 40
0.9654771068
 40
0.9831545593
 40
0.991632955
 40
1.0
 40
1.0
 40
1.0
 40
1.0
 10
16.7941916554
 20
13.3288664657
 30
0.0
 10
16.7885187901
 20
13.328866594
 30
0.0
 10
16.7770839563
 20
13.3281417352
 30
0.0
 10
16.7540404314
 20
13.3237513968
 30
0.0
 10
16.7250762086
 20
13.3124579104
 30
0.0
 10
16.6918549251
 20
13.2906329184
 30
0.0
 10
16.659835599
 20
13.2607276847
 30
0.0
 10
16.6292348528
 20
13.2230614494
 30
0.0
 10
16.600263799
 20
13.1779844474
 30
0.0
 10
16.5731605097
 20
13.1259027595
 30
0.0
 10
16.5481691142
 20
13.0672903628
 30
0.0
 10
16.5255194775
 20
13.0026923898
 30
0.0
 10
16.5054261446
 20
12.9327162028
 30
0.0
 10
16.4880835826
 20
12.8580230187
 30
0.0
 10
16.4685553864
 20
12.7514558589
 30
0.0
 10
16.4523376188
 20
12.6116726453
 30
0.0
 10
16.4458554475
 20
12.4399690271
 30
0.0
 10
16.4523388002
 20
12.2682657737
 30
0.0
 10
16.4685583494
 20
12.1284834239
 30
0.0
 10
16.4880868829
 20
12.0219171965
 30
0.0
 10
16.5054305265
 20
11.9472250945
 30
0.0
 10
16.5255244158
 20
11.8772500331
 30
0.0
 10
16.5481741448
 20
11.8126531909
 30
0.0
 10
16.5731666245
 20
11.754042432
 30
0.0
 10
16.6002701934
 20
11.7019622142
 30
0.0
 10
16.6292411924
 20
11.6568865123
 30
0.0
 10
16.6598429498
 20
11.6192224808
 30
0.0
 10
16.6918622978
 20
11.5893189277
 30
0.0
 10
16.7250835423
 20
11.5674950533
 30
0.0
 10
16.7540482564
 20
11.5562043552
 30
0.0
 10
16.7770916983
 20
11.5518143891
 30
0.0
 10
16.7885267735
 20
11.5510906925
 30
0.0
 10
16.7941997282
 20
11.5510914236
 30
0.0
  0
SPLINE
  5
3B3
100
AcDbEntity
  8
0
100
AcDbSpline
 62
7
  6
BYLAYER
 70
0
 71
3
 72
35
 73
31
 74
0
 42
0.0000001
 43
0.0000001
 44
0.0000000001
 40
0.0
 40
0.0
 40
0.0
 40
0.0
 40
0.0168136129
 40
0.0344917976
 40
0.0537545522
 40
0.0751087459
 40
0.0988606389
 40
0.1251540573
 40
0.1540091769
 40
0.1853566656
 40
0.2190556081
 40
0.2549110867
 40
0.2926864208
 40
0.3321089635
 40
0.4146637141
 40
0.4999882406
 40
0.5853134284
 40
0.6678698454
 40
0.707294055
 40
0.7450704911
 40
0.7809281413
 40
0.8146292008
 40
0.8459783652
 40
0.8748363918
 40
0.9011317479
 40
0.9248857532
 40
0.9462425022
 40
0.9655064553
 40
0.9831859012
 40
1.0
 40
1.0
 40
1.0
 40
1.0
 10
16.9681839906
 20
13.217755725
 30
0.0
 10
16.9582098192
 20
13.2177577801
 30
0.0
 10
16.9376654921
 20
13.2150988752
 30
0.0
 10
16.9077191198
 20
13.2034054847
 30
0.0
 10
16.8786357712
 20
13.1843125499
 30
0.0
 10
16.850623318
 20
13.1581485654
 30
0.0
 10
16.823844947
 20
13.1251947862
 30
0.0
 10
16.7984956685
 20
13.0857554323
 30
0.0
 10
16.774779163
 20
13.0401873306
 30
0.0
 10
16.7529107445
 20
12.9889046166
 30
0.0
 10
16.7330914374
 20
12.9323842495
 30
0.0
 10
16.715508413
 20
12.8711577542
 30
0.0
 10
16.7003326795
 20
12.805803543
 30
0.0
 10
16.6832433034
 20
12.7125598768
 30
0.0
 10
16.6690505976
 20
12.5902517777
 30
0.0
 10
16.6633757464
 20
12.4400125983
 30
0.0
 10
16.6690446211
 20
12.2897720925
 30
0.0
 10
16.6832348725
 20
12.1674614165
 30
0.0
 10
16.7003192249
 20
12.0742141285
 30
0.0
 10
16.7154947406
 20
12.0088568617
 30
0.0
 10
16.7330742354
 20
11.94762608
 30
0.0
 10
16.7528914905
 20
11.8911011632
 30
0.0
 10
16.774759846
 20
11.8398141884
 30
0.0
 10
16.7984725443
 20
11.7942397741
 30
0.0
 10
16.8238218292
 20
11.7547953632
 30
0.0
 10
16.8505994556
 20
11.7218363318
 30
0.0
 10
16.8786088817
 20
11.6956636457
 30
0.0
 10
16.9076935094
 20
11.6765675972
 30
0.0
 10
16.9376380845
 20
11.6648649398
 30
0.0
 10
16.9581829122
 20
11.6622024783
 30
0.0
 10
16.9681573719
 20
11.66220109
 30
0.0
  0
SPLINE
  5
3B4
100
AcDbEntity
  8
0
100
AcDbSpline
 62
7
  6
BYLAYER
 70
0
 71
3
 72
11
 73
7
 74
0
 42
0.0000001
 43
0.0000001
 44
0.0000000001
 40
0.0
 40
0.0
 40
0.0
 40
0.0
 40
0.274559897
 40
0.5331115242
 40
0.7750364083
 40
1.0
 40
1.0
 40
1.0
 40
1.0
 10
15.870458218
 20
11.8344357917
 30
0.0
 10
15.8763338833
 20
11.8182218751
 30
0.0
 10
15.8884975575
 20
11.7870046572
 30
0.0
 10
15.90865061
 20
11.742660032
 30
0.0
 10
15.9300666051
 20
11.702404637
 30
0.0
 10
15.9456776964
 20
11.6775369232
 30
0.0
 10
15.9537015816
 20
11.6659056249
 30
0.0
  0
SPLINE
  5
3B5
100
AcDbEntity
  8
0
100
AcDbSpline
 62
7
  6
BYLAYER
 70
0
 71
3
 72
35
 73
31
 74
0
 42
0.0000001
 43
0.0000001
 44
0.0000000001
 40
0.0
 40
0.0
 40
0.0
 40
0.0
 40
0.016813892
 40
0.0344928333
 40
0.053756044
 40
0.0751118834
 40
0.0988648761
 40
0.1251591684
 40
0.1540161195
 40
0.1853642297
 40
0.2190642827
 40
0.2549209966
 40
0.2926965862
 40
0.3321200561
 40
0.4146753679
 40
0.5000000145
 40
0.5853246211
 40
0.667880097
 40
0.7073032409
 40
0.7450793267
 40
0.7809356979
 40
0.8146356597
 40
0.8459842717
 40
0.8748405924
 40
0.9011352498
 40
0.9248883643
 40
0.9462436892
 40
0.9655073823
 40
0.983186191
 40
1.0
 40
1.0
 40
1.0
 40
1.0
 10
16.9016467424
 20
11.6622010891
 30
0.0
 10
16.8916724373
 20
11.6622015932
 30
0.0
 10
16.8711278526
 20
11.6648621387
 30
0.0
 10
16.8411831944
 20
11.6765619861
 30
0.0
 10
16.8120983875
 20
11.6956552659
 30
0.0
 10
16.7840887043
 20
11.7218252047
 30
0.0
 10
16.7573107366
 20
11.7547815156
 30
0.0
 10
16.7319610165
 20
11.7942232544
 30
0.0
 10
16.7082477789
 20
11.8397950727
 30
0.0
 10
16.6863787798
 20
11.89107956
 30
0.0
 10
16.6665607781
 20
11.9476021301
 30
0.0
 10
16.6489804359
 20
12.0088307361
 30
0.0
 10
16.633803979
 20
12.0741860283
 30
0.0
 10
16.6167182035
 20
12.1674311245
 30
0.0
 10
16.6025260355
 20
12.2897397591
 30
0.0
 10
16.5968546962
 20
12.4399787583
 30
0.0
 10
16.6025269522
 20
12.5902177074
 30
0.0
 10
16.6167174135
 20
12.7125265008
 30
0.0
 10
16.6338049651
 20
12.8057714432
 30
0.0
 10
16.6489794148
 20
12.8711270969
 30
0.0
 10
16.6665612024
 20
12.9323553755
 30
0.0
 10
16.6863793312
 20
12.9888778559
 30
0.0
 10
16.7082466483
 20
13.0401629949
 30
0.0
 10
16.7319621319
 20
13.0857338158
 30
0.0
 10
16.7573104759
 20
13.1251761587
 30
0.0
 10
16.7840880028
 20
13.158133169
 30
0.0
 10
16.8120996849
 20
13.184300618
 30
0.0
 10
16.8411823362
 20
13.2033972553
 30
0.0
 10
16.8711281219
 20
13.2150946189
 30
0.0
 10
16.8916724866
 20
13.2177564152
 30
0.0
 10
16.9016467424
 20
13.2177557271
 30
0.0
  0
SPLINE
  5
3B6
100
AcDbEntity
  8
0
100
AcDbSpline
 62
7
  6
BYLAYER
 70
0
 71
3
 72
10
 73
6
 74
0
 42
0.0000001
 43
0.0000001
 44
0.0000000001
 40
0.0
 40
0.0
 40
0.0
 40
0.0
 40
0.5404629435
 40
0.7756589817
 40
1.0
 40
1.0
 40
1.0
 40
1.0
 10
15.9537015816
 20
11.6659056249
 30
0.0
 10
15.9544034061
 20
11.664888271
 30
0.0
 10
15.9552398764
 20
11.663256345
 30
0.0
 10
15.9555066257
 20
11.6609630592
 30
0.0
 10
15.9553374855
 20
11.6599091949
 30
0.0
 10
15.9551860145
 20
11.6594190353
 30
0.0
  0
SPLINE
  5
3B7
100
AcDbEntity
  8
0
100
AcDbSpline
 62
7
  6
BYLAYER
 70
0
 71
3
 72
11
 73
7
 74
0
 42
0.0000001
 43
0.0000001
 44
0.0000000001
 40
0.0
 40
0.0
 40
0.0
 40
0.0
 40
0.2268630568
 40
0.4649901318
 40
0.7222804645
 40
1.0
 40
1.0
 40
1.0
 40
1.0
 10
16.5893802473
 20
11.5080802951
 30
0.0
 10
16.5886143287
 20
11.5096348515
 30
0.0
 10
16.5864794691
 20
11.5125712529
 30
0.0
 10
16.5819089188
 20
11.5158065039
 30
0.0
 10
16.576271203
 20
11.5177705514
 30
0.0
 10
16.5721667131
 20
11.5181796568
 30
0.0
 10
16.5700452263
 20
11.5181796568
 30
0.0
  0
SPLINE
  5
3B8
100
AcDbEntity
  8
0
100
AcDbSpline
 62
7
  6
BYLAYER
 70
0
 71
3
 72
36
 73
32
 74
0
 42
0.0000001
 43
0.0000001
 44
0.0000000001
 40
0.0
 40
0.0
 40
0.0
 40
0.0
 40
0.0168135709
 40
0.0344924323
 40
0.053755784
 40
0.0751118734
 40
0.0988651553
 40
0.1251596812
 40
0.1540168102
 40
0.1853649891
 40
0.2190649727
 40
0.2549214862
 40
0.2926967099
 40
0.3321196518
 40
0.4146734014
 40
0.4999958084
 40
0.5853175312
 40
0.6678695515
 40
0.7072907839
 40
0.7450648609
 40
0.7809191429
 40
0.8146169597
 40
0.8459633989
 40
0.874817552
 40
0.9011100914
 40
0.9248611862
 40
0.9462146682
 40
0.9654767821
 40
0.9831543801
 40
0.9916329074
 40
1.0
 40
1.0
 40
1.0
 40
1.0
 10
16.7941778563
 20
11.6177565675
 30
0.0
 10
16.7836334184
 20
11.6177578774
 30
0.0
 10
16.7619145554
 20
11.6205726669
 30
0.0
 10
16.7302591234
 20
11.6329446431
 30
0.0
 10
16.6995124317
 20
11.6531317587
 30
0.0
 10
16.669902511
 20
11.6808001939
 30
0.0
 10
16.6415948358
 20
11.7156427404
 30
0.0
 10
16.6147970085
 20
11.7573411807
 30
0.0
 10
16.5897293693
 20
11.8055199409
 30
0.0
 10
16.5666114498
 20
11.8597376703
 30
0.0
 10
16.5456617998
 20
11.919492628
 30
0.0
 10
16.5270778355
 20
11.9842223576
 30
0.0
 10
16.5110351841
 20
12.0533143531
 30
0.0
 10
16.4929746434
 20
12.1518900735
 30
0.0
 10
16.4779735963
 20
12.2811899224
 30
0.0
 10
16.4719808758
 20
12.4400155517
 30
0.0
 10
16.4779800718
 20
12.5988397331
 30
0.0
 10
16.4929838331
 20
12.7281367634
 30
0.0
 10
16.5110497806
 20
12.8267085412
 30
0.0
 10
16.5270927113
 20
12.8957972009
 30
0.0
 10
16.5456804996
 20
12.9605222722
 30
0.0
 10
16.5666323312
 20
13.0202722966
 30
0.0
 10
16.5897504238
 20
13.0744853685
 30
0.0
 10
16.6148220149
 20
13.1226573002
 30
0.0
 10
16.6416202875
 20
13.1643502204
 30
0.0
 10
16.6699273327
 20
13.1991871461
 30
0.0
 10
16.6995453515
 20
13.2268456914
 30
0.0
 10
16.730274934
 20
13.2470311192
 30
0.0
 10
16.7570676952
 20
13.257471707
 30
0.0
 10
16.7783823138
 20
13.2615319817
 30
0.0
 10
16.7889595438
 20
13.2622012194
 30
0.0
 10
16.7942068698
 20
13.2622001292
 30
0.0
  0
SPLINE
  5
3B9
100
AcDbEntity
  8
0
100
AcDbSpline
 62
7
  6
BYLAYER
 70
0
 71
3
 72
36
 73
32
 74
0
 42
0.0000001
 43
0.0000001
 44
0.0000000001
 40
0.0
 40
0.0
 40
0.0
 40
0.0
 40
0.0168133598
 40
0.0344916948
 40
0.0537542706
 40
0.0751094104
 40
0.0988616371
 40
0.125155058
 40
0.1540110725
 40
0.1853581619
 40
0.2190571089
 40
0.2549126598
 40
0.2926870161
 40
0.3321092017
 40
0.4146618271
 40
0.4999836999
 40
0.5853055336
 40
0.6678583281
 40
0.7072801907
 40
0.7450550504
 40
0.7809102568
 40
0.8146091249
 40
0.8459567185
 40
0.8748121022
 40
0.9011059076
 40
0.9248582478
 40
0.9462128809
 40
0.9654759486
 40
0.9831541809
 40
0.9916328673
 40
1.0
 40
1.0
 40
1.0
 40
1.0
 10
16.8607106983
 20
11.6177565666
 30
0.0
 10
16.8501664231
 20
11.6177568798
 30
0.0
 10
16.8284478093
 20
11.6205695162
 30
0.0
 10
16.7967922498
 20
11.6329383521
 30
0.0
 10
16.7660453255
 20
11.6531223902
 30
0.0
 10
16.7364350885
 20
11.680787787
 30
0.0
 10
16.7081270045
 20
11.7156273376
 30
0.0
 10
16.6813286697
 20
11.75732285
 30
0.0
 10
16.6562604092
 20
11.8054987768
 30
0.0
 10
16.633141757
 20
11.8597138031
 30
0.0
 10
16.6121912666
 20
11.919466222
 30
0.0
 10
16.5936063526
 20
11.9841936075
 30
0.0
 10
16.5775626546
 20
12.0532834853
 30
0.0
 10
16.5595005392
 20
12.1518568713
 30
0.0
 10
16.5444973832
 20
12.2811545753
 30
0.0
 10
16.5385019682
 20
12.4399786696
 30
0.0
 10
16.5444983443
 20
12.5988027142
 30
0.0
 10
16.5594996813
 20
12.7281005937
 30
0.0
 10
16.5775636681
 20
12.8266738276
 30
0.0
 10
16.5936052234
 20
12.8957640982
 30
0.0
 10
16.6121916913
 20
12.9604911421
 30
0.0
 10
16.6331422687
 20
13.0202434874
 30
0.0
 10
16.6562591933
 20
13.0744592075
 30
0.0
 10
16.6813297043
 20
13.1226340946
 30
0.0
 10
16.7081269927
 20
13.1643302504
 30
0.0
 10
16.7364331526
 20
13.199170661
 30
0.0
 10
16.7660503653
 20
13.2268329329
 30
0.0
 10
16.7967792209
 20
13.2470223274
 30
0.0
 10
16.8235716093
 20
13.2574665682
 30
0.0
 10
16.844886132
 20
13.261529787
 30
0.0
 10
16.8554633622
 20
13.2622004965
 30
0.0
 10
16.8607106983
 20
13.2622001316
 30
0.0
  0
SPLINE
  5
3BA
100
AcDbEntity
  8
0
100
AcDbSpline
 62
7
  6
BYLAYER
 70
0
 71
3
 72
14
 73
10
 74
0
 42
0.0000001
 43
0.0000001
 44
0.0000000001
 40
0.0
 40
0.0
 40
0.0
 40
0.0
 40
0.269993807
 40
0.4094466673
 40
0.5451394958
 40
0.6729569133
 40
0.7905704427
 40
0.8983629651
 40
1.0
 40
1.0
 40
1.0
 40
1.0
 10
16.5700452263
 20
11.5181796568
 30
0.0
 10
16.5649094355
 20
11.5181796568
 30
0.0
 10
16.5570447205
 20
11.5163197154
 30
0.0
 10
16.5479864494
 20
11.5112039003
 30
0.0
 10
16.5421273859
 20
11.5061702584
 30
0.0
 10
16.5377298677
 20
11.5003278948
 30
0.0
 10
16.5351085966
 20
11.4940491522
 30
0.0
 10
16.5345059901
 20
11.4877488508
 30
0.0
 10
16.5355738346
 20
11.4837969912
 30
0.0
 10
16.5364282921
 20
11.4820627309
 30
0.0
  0
ELLIPSE
  5
3BB
100
AcDbEntity
  8
0
100
AcDbEllipse
 62
7
  6
BYLAYER
 10
5.0416666667
 20
11.7725801076
 30
0.0
 11
0.0
 21
0.0374032724
 31
0.0
 40
0.7426563504
 41
-1.5707963268
 42
0.0
  0
ELLIPSE
  5
3BC
100
AcDbEntity
  8
0
100
AcDbEllipse
 62
7
  6
BYLAYER
 10
4.8194444444
 20
11.7725801076
 30
0.0
 11
0.0
 21
0.0374032724
 31
0.0
 40
0.7426563504
 41
0.0
 42
1.5707963268
  0
ELLIPSE
  5
3BD
100
AcDbEntity
  8
0
100
AcDbEllipse
 62
7
  6
BYLAYER
 10
15.6179833329
 20
11.771527872
 30
0.0
 11
0.000831668
 21
0.0465636923
 31
0.0
 40
0.5493142414
 41
0.0098109149
 42
1.0856749792
  0
ELLIPSE
  5
3BE
100
AcDbEntity
  8
0
100
AcDbEllipse
 62
7
  6
BYLAYER
 10
15.8226635538
 20
11.771527872
 30
0.0
 11
0.000831668
 21
0.0465636923
 31
0.0
 40
0.5493142414
 41
-1.5609854119
 42
0.0098109149
  0
ELLIPSE
  5
3BF
100
AcDbEntity
  8
0
100
AcDbEllipse
 62
7
  6
BYLAYER
 10
15.8168566793
 20
11.3058685385
 30
0.0
 11
0.000831668
 21
0.0465636923
 31
0.0
 40
0.5493142414
 41
-2.0559176743
 42
-1.5609854119
  0
ENDSEC
  0
SECTION
  2
OBJECTS
  0
DICTIONARY
  5
C
100
AcDbDictionary
280
0
281
1
  3
ACAD_GROUP
350
D
  3
ACAD_MLINESTYLE
350
17
  3
ACAD_LAYOUT
350
1A
  3
ACAD_PLOTSETTINGS
350
19
  3
ACAD_PLOTSTYLENAME
350
E
  0
DICTIONARY
  5
D
102
{ACAD_REACTORS
330
C
102
}
100
AcDbDictionary
280
0
281
1
  0
ACDBDICTIONARYWDFLT
  5
E
102
{ACAD_REACTORS
330
C
102
}
100
AcDbDictionary
281
1
  3
Normal
350
F
100
AcDbDictionaryWithDefault
340
F
  0
DICTIONARY
  5
17
102
{ACAD_REACTORS
330
C
102
}
100
AcDbDictionary
280
0
281
1
  3
Standard
350
18
  0
DICTIONARY
  5
19
102
{ACAD_REACTORS
330
C
102
}
100
AcDbDictionary
281
1
  0
DICTIONARY
  5
1A
102
{ACAD_REACTORS
330
C
102
}
100
AcDbDictionary
281
1
  3
Model
350
3C0
  3
Layout1
350
3C1
  0
ACDBPLACEHOLDER
  5
F
102
{ACAD_REACTORS
330
E
102
}
  0
MLINESTYLE
  5
18
102
{ACAD_REACTORS
330
17
102
}
100
AcDbMlineStyle
  2
STANDARD
 70
0
  3

 62
256
 51
90.0
 52
90.0
 71
2
 49
0.5
 62
256
  6
BYLAYER
 49
-0.5
 62
256
  6
BYLAYER
  0
LAYOUT
  5
3C0
102
{ACAD_REACTORS
330
1A
102
}
100
AcDbPlotSettings
  1

  2
none_device
  4
ANSI_C_(22.00_x_17.00_Inches)
  6

 40
0.0
 41
0.0
 42
0.0
 43
0.0
 44
558.8
 45
431.8
 46
0.0
 47
0.0
 48
0.0
 49
0.0
140
0.0
141
0.0
142
1.0
143
1.0
 70
1024
 72
0
 73
0
 74
0
  7

 75
0
147
1.0
148
0.0
149
0.0
100
AcDbLayout
  1
Model
 70
0
 71
0
 10
0.0
 20
0.0
 11
22.0
 21
17.0
 12
0.0
 22
0.0
 32
0.0
 14
0.0
 24
0.0
 34
0.0
 15
0.0
 25
0.0
 35
0.0
146
0.0
 13
0.0
 23
0.0
 33
0.0
 16
1.0
 26
0.0
 36
0.0
 17
0.0
 27
1.0
 37
0.0
 76
0
330
218
345
0
346
0
  0
LAYOUT
  5
3C1
102
{ACAD_REACTORS
330
1A
102
}
100
AcDbPlotSettings
  1

  2
none_device
  4
ANSI_C_(22.00_x_17.00_Inches)
  6

 40
0.0
 41
0.0
 42
0.0
 43
0.0
 44
558.8
 45
431.8
 46
0.0
 47
0.0
 48
0.0
 49
0.0
140
0.0
141
0.0
142
1.0
143
1.0
 70
0
 72
0
 73
0
 74
0
  7

 75
0
147
1.0
148
0.0
149
0.0
100
AcDbLayout
  1
Layout1
 70
0
 71
1
 10
0.0
 20
0.0
 11
22.0
 21
17.0
 12
0.0
 22
0.0
 32
0.0
 14
0.0
 24
0.0
 34
0.0
 15
0.0
 25
0.0
 35
0.0
146
0.0
 13
0.0
 23
0.0
 33
0.0
 16
1.0
 26
0.0
 36
0.0
 17
0.0
 27
1.0
 37
0.0
 76
0
330
219
345
0
346
0
  0
ENDSEC
  0
EOF
